  0
SECTION
  2
HEADER
  9
$ACADVER
  1
AC1009
  9
$INSBASE
 10
0.0
 20
0.0
 30
0.0
  9
$EXTMIN
 10
-339.6207759736721
 20
-228.726647313277
 30
0.0
  9
$EXTMAX
 10
883.33527991697247
 20
332.17057070689839
 30
0.0
  9
$LIMMIN
 10
0.0
 20
0.0
  9
$LIMMAX
 10
12.0
 20
9.0
  9
$ORTHOMODE
 70
     0
  9
$REGENMODE
 70
     1
  9
$FILLMODE
 70
     1
  9
$QTEXTMODE
 70
     0
  9
$MIRRTEXT
 70
     0
  9
$DRAGMODE
 70
     2
  9
$LTSCALE
 40
1.0
  9
$OSMODE
 70
   127
  9
$ATTMODE
 70
     1
  9
$TEXTSIZE
 40
0.2
  9
$TRACEWID
 40
0.05
  9
$TEXTSTYLE
  7
STANDARD
  9
$CLAYER
  8
0
  9
$CELTYPE
  6
BYLAYER
  9
$CECOLOR
 62
   256
  9
$DIMSCALE
 40
1.0
  9
$DIMASZ
 40
0.18
  9
$DIMEXO
 40
0.0625
  9
$DIMDLI
 40
0.38
  9
$DIMRND
 40
0.0
  9
$DIMDLE
 40
0.0
  9
$DIMEXE
 40
0.18
  9
$DIMTP
 40
0.0
  9
$DIMTM
 40
0.0
  9
$DIMTXT
 40
0.18
  9
$DIMCEN
 40
0.09
  9
$DIMTSZ
 40
0.0
  9
$DIMTOL
 70
     0
  9
$DIMLIM
 70
     0
  9
$DIMTIH
 70
     1
  9
$DIMTOH
 70
     1
  9
$DIMSE1
 70
     0
  9
$DIMSE2
 70
     0
  9
$DIMTAD
 70
     0
  9
$DIMZIN
 70
     0
  9
$DIMBLK
  1

  9
$DIMASO
 70
     1
  9
$DIMSHO
 70
     1
  9
$DIMPOST
  1

  9
$DIMAPOST
  1

  9
$DIMALT
 70
     0
  9
$DIMALTD
 70
     2
  9
$DIMALTF
 40
25.399999999999999
  9
$DIMLFAC
 40
1.0
  9
$DIMTOFL
 70
     0
  9
$DIMTVP
 40
0.0
  9
$DIMTIX
 70
     0
  9
$DIMSOXD
 70
     0
  9
$DIMSAH
 70
     0
  9
$DIMBLK1
  1

  9
$DIMBLK2
  1

  9
$DIMSTYLE
  2
STANDARD
  9
$DIMCLRD
 70
     0
  9
$DIMCLRE
 70
     0
  9
$DIMCLRT
 70
     0
  9
$DIMTFAC
 40
1.0
  9
$DIMGAP
 40
0.09
  9
$LUNITS
 70
     2
  9
$LUPREC
 70
     4
  9
$SKETCHINC
 40
0.1
  9
$FILLETRAD
 40
0.0
  9
$AUNITS
 70
     0
  9
$AUPREC
 70
     0
  9
$MENU
  1
.
  9
$ELEVATION
 40
0.0
  9
$PELEVATION
 40
0.0
  9
$THICKNESS
 40
0.0
  9
$LIMCHECK
 70
     0
  9
$BLIPMODE
 70
     0
  9
$CHAMFERA
 40
0.0
  9
$CHAMFERB
 40
0.0
  9
$SKPOLY
 70
     0
  9
$TDCREATE
 40
2457338.5998660652
  9
$TDUPDATE
 40
2457338.6597837042
  9
$TDINDWG
 40
0.0001194907
  9
$TDUSRTIMER
 40
0.0001194907
  9
$USRTIMER
 70
     1
  9
$ANGBASE
 50
0.0
  9
$ANGDIR
 70
     0
  9
$PDMODE
 70
     0
  9
$PDSIZE
 40
0.0
  9
$PLINEWID
 40
0.0
  9
$COORDS
 70
     2
  9
$SPLFRAME
 70
     0
  9
$SPLINETYPE
 70
     6
  9
$SPLINESEGS
 70
     8
  9
$ATTDIA
 70
     0
  9
$ATTREQ
 70
     1
  9
$HANDLING
 70
     1
  9
$HANDSEED
  5
994
  9
$SURFTAB1
 70
     6
  9
$SURFTAB2
 70
     6
  9
$SURFTYPE
 70
     6
  9
$SURFU
 70
     6
  9
$SURFV
 70
     6
  9
$UCSNAME
  2

  9
$UCSORG
 10
0.0
 20
0.0
 30
0.0
  9
$UCSXDIR
 10
1.0
 20
0.0
 30
0.0
  9
$UCSYDIR
 10
0.0
 20
1.0
 30
0.0
  9
$PUCSNAME
  2

  9
$PUCSORG
 10
0.0
 20
0.0
 30
0.0
  9
$PUCSXDIR
 10
1.0
 20
0.0
 30
0.0
  9
$PUCSYDIR
 10
0.0
 20
1.0
 30
0.0
  9
$USERI1
 70
     0
  9
$USERI2
 70
     0
  9
$USERI3
 70
     0
  9
$USERI4
 70
     0
  9
$USERI5
 70
     0
  9
$USERR1
 40
0.0
  9
$USERR2
 40
0.0
  9
$USERR3
 40
0.0
  9
$USERR4
 40
0.0
  9
$USERR5
 40
0.0
  9
$WORLDVIEW
 70
     1
  9
$SHADEDGE
 70
     3
  9
$SHADEDIF
 70
    70
  9
$TILEMODE
 70
     1
  9
$MAXACTVP
 70
    64
  9
$PLIMCHECK
 70
     0
  9
$PEXTMIN
 10
29.065001225471502
 20
20.364999699592602
 30
0.0
  9
$PEXTMAX
 10
261.58501102924339
 20
183.2849972963333
 30
0.0
  9
$PLIMMIN
 10
-3.17498779296875
 20
-3.1749999523162842
  9
$PLIMMAX
 10
293.82501220703119
 20
206.82500004768369
  9
$UNITMODE
 70
     0
  9
$VISRETAIN
 70
     1
  9
$PLINEGEN
 70
     0
  9
$PSLTSCALE
 70
     1
  0
ENDSEC
  0
SECTION
  2
TABLES
  0
TABLE
  2
VPORT
 70
     1
  0
VPORT
  2
*ACTIVE
 70
     0
 10
0.0
 20
0.0
 11
1.0
 21
1.0
 12
271.85725197165033
 22
181.33702141998751
 13
0.0
 23
0.0
 14
1.0
 24
1.0
 15
0.0
 25
0.0
 16
0.0
 26
0.0
 36
1.0
 17
0.0
 27
0.0
 37
0.0
 40
820.12733746652907
 41
1.483682983682983
 42
50.0
 43
0.0
 44
0.0
 50
0.0
 51
0.0
 71
     0
 72
  1000
 73
     1
 74
     1
 75
     0
 76
     0
 77
     0
 78
     0
  0
ENDTAB
  0
TABLE
  2
LTYPE
 70
     2
  0
LTYPE
  2
CONTINUOUS
 70
     0
  3
Solid line
 72
    65
 73
     0
 40
0.0
  0
LTYPE
  2
DASH
 70
     0
  3

 72
    65
 73
     2
 40
6.3499999999999996
 49
3.1749999999999998
 49
-3.1749999999999998
  0
ENDTAB
  0
TABLE
  2
LAYER
 70
     6
  0
LAYER
  2
0
 70
     0
 62
     7
  6
CONTINUOUS
  0
ENDTAB
  0
TABLE
  2
STYLE
 70
     8
  0
STYLE
  2
STANDARD
 70
     0
 40
0.0
 41
1.0
 50
0.0
 71
     0
 42
0.2
  3
txt
  4

  0
STYLE
  2
ARIAL
 70
     0
 40
12.2941616766467
 41
1.0
 50
0.0
 71
     0
 42
0.2
  3
txt
  4

  0
ENDTAB
  0
TABLE
  2
VIEW
 70
     1
  0
ENDTAB
  0
TABLE
  2
UCS
 70
     0
  0
ENDTAB
  0
TABLE
  2
APPID
 70
     6
  0
APPID
  2
ACAD
 70
     0
  0
APPID
  2
ACADANNOTATIVE
 70
     0
  0
APPID
  2
REVIT
 70
     0
  0
APPID
  2
ACAD_PSEXT
 70
     0
  0
APPID
  2
ACAD_NAV_VCDISPLAY
 70
     0
  0
APPID
  2
ACAD_MLEADERVER
 70
     0
  0
ENDTAB
  0
TABLE
  2
DIMSTYLE
 70
     2
  0
DIMSTYLE
  2
STANDARD
 70
     0
  3

  4

  5

  6

  7

 40
1.0
 41
0.18
 42
0.0625
 43
0.38
 44
0.18
 45
0.0
 46
0.0
 47
0.0
 48
0.0
140
0.18
141
0.09
142
0.0
143
25.399999999999999
144
1.0
145
0.0
146
1.0
147
0.09
 71
     0
 72
     0
 73
     1
 74
     1
 75
     0
 76
     0
 77
     0
 78
     0
170
     0
171
     2
172
     0
173
     0
174
     0
175
     0
176
     0
177
     0
178
     0
  0
ENDTAB
  0
ENDSEC
  0
SECTION
  2
BLOCKS
  0
BLOCK
  8
0
  2
$MODEL_SPACE
 70
     0
 10
0.0
 20
0.0
 30
0.0
  3
$MODEL_SPACE
  1

  0
ENDBLK
  5
72
  8
0
  0
BLOCK
 67
     1
  8
0
  2
$PAPER_SPACE
 70
     0
 10
0.0
 20
0.0
 30
0.0
  3
$PAPER_SPACE
  1

  0
ENDBLK
  5
76
 67
     1
  8
0
  0
BLOCK
  8
0
  2
*U15
 70
     1
 10
0.0
 20
0.0
 30
0.0
  3
*U15
  1

  0
SOLID
  5
475
  8
0
  6
CONTINUOUS
 10
505.94502224013422
 20
159.01737828243699
 30
0.0
 11
504.98831365922149
 21
158.82707711371521
 31
0.0
 12
506.9017308210469
 22
158.82707711371521
 32
0.0
 13
506.9017308210469
 23
158.82707711371521
 33
0.0
210
0.0
220
0.0
230
1.0
  0
SOLID
  5
476
  8
0
  6
CONTINUOUS
 10
504.98831365922149
 20
158.82707711371521
 30
0.0
 11
504.1772552871679
 21
158.28514523540341
 31
0.0
 12
507.71278919310049
 22
158.28514523540341
 32
0.0
 13
507.71278919310049
 23
158.28514523540341
 33
0.0
210
0.0
220
0.0
230
1.0
  0
SOLID
  5
477
  8
0
  6
CONTINUOUS
 10
-504.98831365922149
 20
158.82707711371521
 30
0.0
 11
-506.9017308210469
 21
158.82707711371521
 31
0.0
 12
-507.71278919310049
 22
158.28514523540341
 32
0.0
 13
-507.71278919310049
 23
158.28514523540341
 33
0.0
210
0.0
220
0.0
230
-1.0
  0
SOLID
  5
478
  8
0
  6
CONTINUOUS
 10
504.1772552871679
 20
158.28514523540341
 30
0.0
 11
503.63532340885598
 21
157.47408686334981
 31
0.0
 12
508.2547210714124
 22
157.47408686334981
 32
0.0
 13
508.2547210714124
 23
157.47408686334981
 33
0.0
  0
SOLID
  5
479
  8
0
  6
CONTINUOUS
 10
-504.1772552871679
 20
158.28514523540341
 30
0.0
 11
-507.71278919310049
 21
158.28514523540341
 31
0.0
 12
-508.2547210714124
 22
157.47408686334981
 32
0.0
 13
-508.2547210714124
 23
157.47408686334981
 33
0.0
210
0.0
220
0.0
230
-1.0
  0
SOLID
  5
47A
  8
0
  6
CONTINUOUS
 10
503.63532340885598
 20
157.47408686334981
 30
0.0
 11
503.44502224013428
 21
156.51737828243711
 31
0.0
 12
508.44502224013422
 22
156.51737828243711
 32
0.0
 13
508.44502224013422
 23
156.51737828243711
 33
0.0
210
0.0
220
0.0
230
1.0
  0
SOLID
  5
47B
  8
0
  6
CONTINUOUS
 10
-503.63532340885598
 20
157.47408686334981
 30
0.0
 11
-508.2547210714124
 21
157.47408686334981
 31
0.0
 12
-508.44502224013422
 22
156.51737828243711
 32
0.0
 13
-508.44502224013422
 23
156.51737828243711
 33
0.0
210
0.0
220
0.0
230
-1.0
  0
SOLID
  5
47C
  8
0
  6
CONTINUOUS
 10
503.44502224013428
 20
156.51737828243711
 30
0.0
 11
503.63532340885598
 21
155.56066970152429
 31
0.0
 12
508.2547210714124
 22
155.56066970152429
 32
0.0
 13
508.2547210714124
 23
155.56066970152429
 33
0.0
210
0.0
220
0.0
230
1.0
  0
SOLID
  5
47D
  8
0
  6
CONTINUOUS
 10
-503.44502224013428
 20
156.51737828243711
 30
0.0
 11
-508.44502224013422
 21
156.51737828243711
 31
0.0
 12
-508.2547210714124
 22
155.56066970152429
 32
0.0
 13
-508.2547210714124
 23
155.56066970152429
 33
0.0
210
0.0
220
0.0
230
-1.0
  0
SOLID
  5
47E
  8
0
  6
CONTINUOUS
 10
503.63532340885598
 20
155.56066970152429
 30
0.0
 11
504.1772552871679
 21
154.7496113294707
 31
0.0
 12
507.71278919310049
 22
154.7496113294707
 32
0.0
 13
507.71278919310049
 23
154.7496113294707
 33
0.0
210
0.0
220
0.0
230
1.0
  0
SOLID
  5
47F
  8
0
  6
CONTINUOUS
 10
-503.63532340885598
 20
155.56066970152429
 30
0.0
 11
-508.2547210714124
 21
155.56066970152429
 31
0.0
 12
-507.71278919310049
 22
154.7496113294707
 32
0.0
 13
-507.71278919310049
 23
154.7496113294707
 33
0.0
210
0.0
220
0.0
230
-1.0
  0
SOLID
  5
480
  8
0
  6
CONTINUOUS
 10
-504.98831365922149
 20
154.2076794511589
 30
0.0
 11
-506.9017308210469
 21
154.2076794511589
 31
0.0
 12
-505.94502224013422
 22
154.01737828243711
 32
0.0
 13
-505.94502224013422
 23
154.01737828243711
 33
0.0
210
0.0
220
0.0
230
-1.0
  0
SOLID
  5
481
  8
0
  6
CONTINUOUS
 10
504.1772552871679
 20
154.7496113294707
 30
0.0
 11
504.98831365922149
 21
154.2076794511589
 31
0.0
 12
506.9017308210469
 22
154.2076794511589
 32
0.0
 13
506.9017308210469
 23
154.2076794511589
 33
0.0
  0
SOLID
  5
482
  8
0
  6
CONTINUOUS
 10
-504.1772552871679
 20
154.7496113294707
 30
0.0
 11
-507.71278919310049
 21
154.7496113294707
 31
0.0
 12
-506.9017308210469
 22
154.2076794511589
 32
0.0
 13
-506.9017308210469
 23
154.2076794511589
 33
0.0
210
0.0
220
0.0
230
-1.0
  0
LINE
  5
483
  8
0
  6
CONTINUOUS
 10
505.94502224013422
 20
159.01737828243699
 30
0.0
 11
504.98831365922149
 21
158.82707711371521
 31
0.0
  0
LINE
  5
484
  8
0
  6
CONTINUOUS
 10
506.9017308210469
 20
158.82707711371521
 30
0.0
 11
505.94502224013422
 21
159.01737828243699
 31
0.0
  0
LINE
  5
485
  8
0
  6
CONTINUOUS
 10
504.98831365922149
 20
158.82707711371521
 30
0.0
 11
504.1772552871679
 21
158.28514523540341
 31
0.0
  0
LINE
  5
486
  8
0
  6
CONTINUOUS
 10
506.9017308210469
 20
158.82707711371521
 30
0.0
 11
507.71278919310049
 21
158.28514523540341
 31
0.0
  0
LINE
  5
487
  8
0
  6
CONTINUOUS
 10
504.1772552871679
 20
158.28514523540341
 30
0.0
 11
503.63532340885598
 21
157.47408686334981
 31
0.0
  0
LINE
  5
488
  8
0
  6
CONTINUOUS
 10
507.71278919310049
 20
158.28514523540341
 30
0.0
 11
508.2547210714124
 21
157.47408686334981
 31
0.0
  0
LINE
  5
489
  8
0
  6
CONTINUOUS
 10
503.63532340885598
 20
157.47408686334981
 30
0.0
 11
503.44502224013428
 21
156.51737828243711
 31
0.0
  0
LINE
  5
48A
  8
0
  6
CONTINUOUS
 10
508.2547210714124
 20
157.47408686334981
 30
0.0
 11
508.44502224013422
 21
156.51737828243711
 31
0.0
  0
LINE
  5
48B
  8
0
  6
CONTINUOUS
 10
503.44502224013428
 20
156.51737828243711
 30
0.0
 11
503.63532340885598
 21
155.56066970152429
 31
0.0
  0
LINE
  5
48C
  8
0
  6
CONTINUOUS
 10
508.44502224013422
 20
156.51737828243711
 30
0.0
 11
508.2547210714124
 21
155.56066970152429
 31
0.0
  0
LINE
  5
48D
  8
0
  6
CONTINUOUS
 10
503.63532340885598
 20
155.56066970152429
 30
0.0
 11
504.1772552871679
 21
154.7496113294707
 31
0.0
  0
LINE
  5
48E
  8
0
  6
CONTINUOUS
 10
508.2547210714124
 20
155.56066970152429
 30
0.0
 11
507.71278919310049
 21
154.7496113294707
 31
0.0
  0
LINE
  5
48F
  8
0
  6
CONTINUOUS
 10
506.9017308210469
 20
154.2076794511589
 30
0.0
 11
505.94502224013422
 21
154.01737828243711
 31
0.0
  0
LINE
  5
490
  8
0
  6
CONTINUOUS
 10
505.94502224013422
 20
154.01737828243711
 30
0.0
 11
504.98831365922149
 21
154.2076794511589
 31
0.0
  0
LINE
  5
491
  8
0
  6
CONTINUOUS
 10
504.1772552871679
 20
154.7496113294707
 30
0.0
 11
504.98831365922149
 21
154.2076794511589
 31
0.0
  0
LINE
  5
492
  8
0
  6
CONTINUOUS
 10
507.71278919310049
 20
154.7496113294707
 30
0.0
 11
506.9017308210469
 21
154.2076794511589
 31
0.0
  0
ENDBLK
  5
494
  8
0
  0
BLOCK
  8
0
  2
*U16
 70
     1
 10
0.0
 20
0.0
 30
0.0
  3
*U16
  1

  0
TEXT
  5
496
  8
0
 10
604.90920214414155
 20
244.74360656107569
 30
0.0
 40
12.2941616766467
  1
Tile edge turned up minimum
  7
ARIAL
  0
TEXT
  5
497
  8
0
 10
605.09369843124011
 20
225.5128373303065
 30
0.0
 40
12.2941616766467
  1
40mm.
  7
ARIAL
  0
ENDBLK
  5
499
  8
0
  0
BLOCK
  8
0
  2
*U17
 70
     1
 10
0.0
 20
0.0
 30
0.0
  3
*U17
  1

  0
SOLID
  5
49B
  8
0
  6
CONTINUOUS
 10
516.99566550613974
 20
-18.232711878459909
 30
0.0
 11
516.03895692522701
 21
-18.423013047181691
 31
0.0
 12
517.95237408705236
 22
-18.423013047181691
 32
0.0
 13
517.95237408705236
 23
-18.423013047181691
 33
0.0
  0
SOLID
  5
49C
  8
0
  6
CONTINUOUS
 10
516.03895692522701
 20
-18.423013047181691
 30
0.0
 11
515.22789855317342
 21
-18.96494492549354
 31
0.0
 12
518.76343245910596
 22
-18.96494492549354
 32
0.0
 13
518.76343245910596
 23
-18.96494492549354
 33
0.0
210
0.0
220
0.0
230
1.0
  0
SOLID
  5
49D
  8
0
  6
CONTINUOUS
 10
-516.03895692522701
 20
-18.423013047181691
 30
0.0
 11
-517.95237408705236
 21
-18.423013047181691
 31
0.0
 12
-518.76343245910596
 22
-18.96494492549354
 32
0.0
 13
-518.76343245910596
 23
-18.96494492549354
 33
0.0
210
0.0
220
0.0
230
-1.0
  0
SOLID
  5
49E
  8
0
  6
CONTINUOUS
 10
515.22789855317342
 20
-18.96494492549354
 30
0.0
 11
514.68596667486145
 21
-19.776003297547181
 31
0.0
 12
519.30536433741793
 22
-19.776003297547181
 32
0.0
 13
519.30536433741793
 23
-19.776003297547181
 33
0.0
210
0.0
220
0.0
230
1.0
  0
SOLID
  5
49F
  8
0
  6
CONTINUOUS
 10
-515.22789855317342
 20
-18.96494492549354
 30
0.0
 11
-518.76343245910596
 21
-18.96494492549354
 31
0.0
 12
-519.30536433741793
 22
-19.776003297547181
 32
0.0
 13
-519.30536433741793
 23
-19.776003297547181
 33
0.0
210
0.0
220
0.0
230
-1.0
  0
SOLID
  5
4A0
  8
0
  6
CONTINUOUS
 10
514.68596667486145
 20
-19.776003297547181
 30
0.0
 11
514.49566550613974
 21
-20.732711878459909
 31
0.0
 12
519.49566550613974
 22
-20.732711878459909
 32
0.0
 13
519.49566550613974
 23
-20.732711878459909
 33
0.0
210
0.0
220
0.0
230
1.0
  0
SOLID
  5
4A1
  8
0
  6
CONTINUOUS
 10
-514.68596667486145
 20
-19.776003297547181
 30
0.0
 11
-519.30536433741793
 21
-19.776003297547181
 31
0.0
 12
-519.49566550613974
 22
-20.732711878459909
 32
0.0
 13
-519.49566550613974
 23
-20.732711878459909
 33
0.0
210
0.0
220
0.0
230
-1.0
  0
SOLID
  5
4A2
  8
0
  6
CONTINUOUS
 10
514.49566550613974
 20
-20.732711878459909
 30
0.0
 11
514.68596667486145
 21
-21.689420459372641
 31
0.0
 12
519.30536433741793
 22
-21.689420459372641
 32
0.0
 13
519.30536433741793
 23
-21.689420459372641
 33
0.0
210
0.0
220
0.0
230
1.0
  0
SOLID
  5
4A3
  8
0
  6
CONTINUOUS
 10
-514.49566550613974
 20
-20.732711878459909
 30
0.0
 11
-519.49566550613974
 21
-20.732711878459909
 31
0.0
 12
-519.30536433741793
 22
-21.689420459372641
 32
0.0
 13
-519.30536433741793
 23
-21.689420459372641
 33
0.0
210
0.0
220
0.0
230
-1.0
  0
SOLID
  5
4A4
  8
0
  6
CONTINUOUS
 10
514.68596667486145
 20
-21.689420459372641
 30
0.0
 11
515.22789855317342
 21
-22.500478831426271
 31
0.0
 12
518.76343245910596
 22
-22.500478831426271
 32
0.0
 13
518.76343245910596
 23
-22.500478831426271
 33
0.0
210
0.0
220
0.0
230
1.0
  0
SOLID
  5
4A5
  8
0
  6
CONTINUOUS
 10
-514.68596667486145
 20
-21.689420459372641
 30
0.0
 11
-519.30536433741793
 21
-21.689420459372641
 31
0.0
 12
-518.76343245910596
 22
-22.500478831426271
 32
0.0
 13
-518.76343245910596
 23
-22.500478831426271
 33
0.0
210
0.0
220
0.0
230
-1.0
  0
SOLID
  5
4A6
  8
0
  6
CONTINUOUS
 10
-516.03895692522701
 20
-23.042410709738121
 30
0.0
 11
-517.95237408705236
 21
-23.042410709738121
 31
0.0
 12
-516.99566550613974
 22
-23.232711878459909
 32
0.0
 13
-516.99566550613974
 23
-23.232711878459909
 33
0.0
210
0.0
220
0.0
230
-1.0
  0
SOLID
  5
4A7
  8
0
  6
CONTINUOUS
 10
515.22789855317342
 20
-22.500478831426271
 30
0.0
 11
516.03895692522701
 21
-23.042410709738121
 31
0.0
 12
517.95237408705236
 22
-23.042410709738121
 32
0.0
 13
517.95237408705236
 23
-23.042410709738121
 33
0.0
  0
SOLID
  5
4A8
  8
0
  6
CONTINUOUS
 10
-515.22789855317342
 20
-22.500478831426271
 30
0.0
 11
-518.76343245910596
 21
-22.500478831426271
 31
0.0
 12
-517.95237408705236
 22
-23.042410709738121
 32
0.0
 13
-517.95237408705236
 23
-23.042410709738121
 33
0.0
210
0.0
220
0.0
230
-1.0
  0
LINE
  5
4A9
  8
0
  6
CONTINUOUS
 10
516.99566550613974
 20
-18.232711878459909
 30
0.0
 11
516.03895692522701
 21
-18.423013047181691
 31
0.0
  0
LINE
  5
4AA
  8
0
  6
CONTINUOUS
 10
517.95237408705236
 20
-18.423013047181691
 30
0.0
 11
516.99566550613974
 21
-18.232711878459909
 31
0.0
  0
LINE
  5
4AB
  8
0
  6
CONTINUOUS
 10
516.03895692522701
 20
-18.423013047181691
 30
0.0
 11
515.22789855317342
 21
-18.96494492549354
 31
0.0
  0
LINE
  5
4AC
  8
0
  6
CONTINUOUS
 10
517.95237408705236
 20
-18.423013047181691
 30
0.0
 11
518.76343245910596
 21
-18.96494492549354
 31
0.0
  0
LINE
  5
4AD
  8
0
  6
CONTINUOUS
 10
515.22789855317342
 20
-18.96494492549354
 30
0.0
 11
514.68596667486145
 21
-19.776003297547181
 31
0.0
  0
LINE
  5
4AE
  8
0
  6
CONTINUOUS
 10
518.76343245910596
 20
-18.96494492549354
 30
0.0
 11
519.30536433741793
 21
-19.776003297547181
 31
0.0
  0
LINE
  5
4AF
  8
0
  6
CONTINUOUS
 10
514.68596667486145
 20
-19.776003297547181
 30
0.0
 11
514.49566550613974
 21
-20.732711878459909
 31
0.0
  0
LINE
  5
4B0
  8
0
  6
CONTINUOUS
 10
519.30536433741793
 20
-19.776003297547181
 30
0.0
 11
519.49566550613974
 21
-20.732711878459909
 31
0.0
  0
LINE
  5
4B1
  8
0
  6
CONTINUOUS
 10
514.49566550613974
 20
-20.732711878459909
 30
0.0
 11
514.68596667486145
 21
-21.689420459372641
 31
0.0
  0
LINE
  5
4B2
  8
0
  6
CONTINUOUS
 10
519.49566550613974
 20
-20.732711878459909
 30
0.0
 11
519.30536433741793
 21
-21.689420459372641
 31
0.0
  0
LINE
  5
4B3
  8
0
  6
CONTINUOUS
 10
514.68596667486145
 20
-21.689420459372641
 30
0.0
 11
515.22789855317342
 21
-22.500478831426271
 31
0.0
  0
LINE
  5
4B4
  8
0
  6
CONTINUOUS
 10
519.30536433741793
 20
-21.689420459372641
 30
0.0
 11
518.76343245910596
 21
-22.500478831426271
 31
0.0
  0
LINE
  5
4B5
  8
0
  6
CONTINUOUS
 10
517.95237408705236
 20
-23.042410709738121
 30
0.0
 11
516.99566550613974
 21
-23.232711878459909
 31
0.0
  0
LINE
  5
4B6
  8
0
  6
CONTINUOUS
 10
516.99566550613974
 20
-23.232711878459909
 30
0.0
 11
516.03895692522701
 21
-23.042410709738121
 31
0.0
  0
LINE
  5
4B7
  8
0
  6
CONTINUOUS
 10
515.22789855317342
 20
-22.500478831426271
 30
0.0
 11
516.03895692522701
 21
-23.042410709738121
 31
0.0
  0
LINE
  5
4B8
  8
0
  6
CONTINUOUS
 10
518.76343245910596
 20
-22.500478831426271
 30
0.0
 11
517.95237408705236
 21
-23.042410709738121
 31
0.0
  0
ENDBLK
  5
4BA
  8
0
  0
BLOCK
  8
0
  2
*U18
 70
     1
 10
0.0
 20
0.0
 30
0.0
  3
*U18
  1

  0
TEXT
  5
4BC
  8
0
 10
603.78703787785832
 20
-51.584215696844211
 30
0.0
 40
12.2941616766467
  1
Metal fascia system
  7
ARIAL
  0
ENDBLK
  5
4BE
  8
0
  0
BLOCK
  8
0
  2
*U19
 70
     1
 10
0.0
 20
0.0
 30
0.0
  3
*U19
  1

  0
SOLID
  5
4C0
  8
0
  6
CONTINUOUS
 10
368.15287401434671
 20
-4.3438215980002388
 30
0.0
 11
367.19616543343398
 21
-4.5341227667220219
 31
0.0
 12
369.1095825952595
 22
-4.5341227667220219
 32
0.0
 13
369.1095825952595
 23
-4.5341227667220219
 33
0.0
210
0.0
220
0.0
230
1.0
  0
SOLID
  5
4C1
  8
0
  6
CONTINUOUS
 10
367.19616543343398
 20
-4.5341227667220219
 30
0.0
 11
366.38510706138038
 21
-5.0760546450338699
 31
0.0
 12
369.9206409673132
 22
-5.0760546450338699
 32
0.0
 13
369.9206409673132
 23
-5.0760546450338699
 33
0.0
210
0.0
220
0.0
230
1.0
  0
SOLID
  5
4C2
  8
0
  6
CONTINUOUS
 10
-367.19616543343398
 20
-4.5341227667220219
 30
0.0
 11
-369.1095825952595
 21
-4.5341227667220219
 31
0.0
 12
-369.9206409673132
 22
-5.0760546450338699
 32
0.0
 13
-369.9206409673132
 23
-5.0760546450338699
 33
0.0
210
0.0
220
0.0
230
-1.0
  0
SOLID
  5
4C3
  8
0
  6
CONTINUOUS
 10
366.38510706138038
 20
-5.0760546450338699
 30
0.0
 11
365.84317518306852
 21
-5.8871130170875139
 31
0.0
 12
370.462572845625
 22
-5.8871130170875139
 32
0.0
 13
370.462572845625
 23
-5.8871130170875139
 33
0.0
  0
SOLID
  5
4C4
  8
0
  6
CONTINUOUS
 10
-366.38510706138038
 20
-5.0760546450338699
 30
0.0
 11
-369.9206409673132
 21
-5.0760546450338699
 31
0.0
 12
-370.462572845625
 22
-5.8871130170875139
 32
0.0
 13
-370.462572845625
 23
-5.8871130170875139
 33
0.0
210
0.0
220
0.0
230
-1.0
  0
SOLID
  5
4C5
  8
0
  6
CONTINUOUS
 10
365.84317518306852
 20
-5.8871130170875139
 30
0.0
 11
365.65287401434682
 21
-6.843821598000237
 31
0.0
 12
370.65287401434682
 22
-6.843821598000237
 32
0.0
 13
370.65287401434682
 23
-6.843821598000237
 33
0.0
210
0.0
220
0.0
230
1.0
  0
SOLID
  5
4C6
  8
0
  6
CONTINUOUS
 10
-365.84317518306852
 20
-5.8871130170875139
 30
0.0
 11
-370.462572845625
 21
-5.8871130170875139
 31
0.0
 12
-370.65287401434682
 22
-6.843821598000237
 32
0.0
 13
-370.65287401434682
 23
-6.843821598000237
 33
0.0
210
0.0
220
0.0
230
-1.0
  0
SOLID
  5
4C7
  8
0
  6
CONTINUOUS
 10
365.65287401434682
 20
-6.843821598000237
 30
0.0
 11
365.84317518306852
 21
-7.8005301789129611
 31
0.0
 12
370.462572845625
 22
-7.8005301789129611
 32
0.0
 13
370.462572845625
 23
-7.8005301789129611
 33
0.0
210
0.0
220
0.0
230
1.0
  0
SOLID
  5
4C8
  8
0
  6
CONTINUOUS
 10
-365.65287401434682
 20
-6.843821598000237
 30
0.0
 11
-370.65287401434682
 21
-6.843821598000237
 31
0.0
 12
-370.462572845625
 22
-7.8005301789129611
 32
0.0
 13
-370.462572845625
 23
-7.8005301789129611
 33
0.0
210
0.0
220
0.0
230
-1.0
  0
SOLID
  5
4C9
  8
0
  6
CONTINUOUS
 10
365.84317518306852
 20
-7.8005301789129611
 30
0.0
 11
366.38510706138038
 21
-8.611588550966605
 31
0.0
 12
369.9206409673132
 22
-8.611588550966605
 32
0.0
 13
369.9206409673132
 23
-8.611588550966605
 33
0.0
210
0.0
220
0.0
230
1.0
  0
SOLID
  5
4CA
  8
0
  6
CONTINUOUS
 10
-365.84317518306852
 20
-7.8005301789129611
 30
0.0
 11
-370.462572845625
 21
-7.8005301789129611
 31
0.0
 12
-369.9206409673132
 22
-8.611588550966605
 32
0.0
 13
-369.9206409673132
 23
-8.611588550966605
 33
0.0
210
0.0
220
0.0
230
-1.0
  0
SOLID
  5
4CB
  8
0
  6
CONTINUOUS
 10
-367.19616543343398
 20
-9.1535204292784513
 30
0.0
 11
-369.1095825952595
 21
-9.1535204292784513
 31
0.0
 12
-368.15287401434671
 22
-9.3438215980002344
 32
0.0
 13
-368.15287401434671
 23
-9.3438215980002344
 33
0.0
210
0.0
220
0.0
230
-1.0
  0
SOLID
  5
4CC
  8
0
  6
CONTINUOUS
 10
366.38510706138038
 20
-8.611588550966605
 30
0.0
 11
367.19616543343398
 21
-9.1535204292784513
 31
0.0
 12
369.1095825952595
 22
-9.1535204292784513
 32
0.0
 13
369.1095825952595
 23
-9.1535204292784513
 33
0.0
210
0.0
220
0.0
230
1.0
  0
SOLID
  5
4CD
  8
0
  6
CONTINUOUS
 10
-366.38510706138038
 20
-8.611588550966605
 30
0.0
 11
-369.9206409673132
 21
-8.611588550966605
 31
0.0
 12
-369.1095825952595
 22
-9.1535204292784513
 32
0.0
 13
-369.1095825952595
 23
-9.1535204292784513
 33
0.0
210
0.0
220
0.0
230
-1.0
  0
LINE
  5
4CE
  8
0
  6
CONTINUOUS
 10
368.15287401434671
 20
-4.3438215980002388
 30
0.0
 11
367.19616543343398
 21
-4.5341227667220219
 31
0.0
  0
LINE
  5
4CF
  8
0
  6
CONTINUOUS
 10
369.1095825952595
 20
-4.5341227667220219
 30
0.0
 11
368.15287401434671
 21
-4.3438215980002388
 31
0.0
  0
LINE
  5
4D0
  8
0
  6
CONTINUOUS
 10
367.19616543343398
 20
-4.5341227667220219
 30
0.0
 11
366.38510706138038
 21
-5.0760546450338699
 31
0.0
  0
LINE
  5
4D1
  8
0
  6
CONTINUOUS
 10
369.1095825952595
 20
-4.5341227667220219
 30
0.0
 11
369.9206409673132
 21
-5.0760546450338699
 31
0.0
  0
LINE
  5
4D2
  8
0
  6
CONTINUOUS
 10
366.38510706138038
 20
-5.0760546450338699
 30
0.0
 11
365.84317518306852
 21
-5.8871130170875139
 31
0.0
  0
LINE
  5
4D3
  8
0
  6
CONTINUOUS
 10
369.9206409673132
 20
-5.0760546450338699
 30
0.0
 11
370.462572845625
 21
-5.8871130170875139
 31
0.0
  0
LINE
  5
4D4
  8
0
  6
CONTINUOUS
 10
365.84317518306852
 20
-5.8871130170875139
 30
0.0
 11
365.65287401434682
 21
-6.843821598000237
 31
0.0
  0
LINE
  5
4D5
  8
0
  6
CONTINUOUS
 10
370.462572845625
 20
-5.8871130170875139
 30
0.0
 11
370.65287401434682
 21
-6.843821598000237
 31
0.0
  0
LINE
  5
4D6
  8
0
  6
CONTINUOUS
 10
365.65287401434682
 20
-6.843821598000237
 30
0.0
 11
365.84317518306852
 21
-7.8005301789129611
 31
0.0
  0
LINE
  5
4D7
  8
0
  6
CONTINUOUS
 10
370.65287401434682
 20
-6.843821598000237
 30
0.0
 11
370.462572845625
 21
-7.8005301789129611
 31
0.0
  0
LINE
  5
4D8
  8
0
  6
CONTINUOUS
 10
365.84317518306852
 20
-7.8005301789129611
 30
0.0
 11
366.38510706138038
 21
-8.611588550966605
 31
0.0
  0
LINE
  5
4D9
  8
0
  6
CONTINUOUS
 10
370.462572845625
 20
-7.8005301789129611
 30
0.0
 11
369.9206409673132
 21
-8.611588550966605
 31
0.0
  0
LINE
  5
4DA
  8
0
  6
CONTINUOUS
 10
369.1095825952595
 20
-9.1535204292784513
 30
0.0
 11
368.15287401434671
 21
-9.3438215980002344
 31
0.0
  0
LINE
  5
4DB
  8
0
  6
CONTINUOUS
 10
368.15287401434671
 20
-9.3438215980002344
 30
0.0
 11
367.19616543343398
 21
-9.1535204292784513
 31
0.0
  0
LINE
  5
4DC
  8
0
  6
CONTINUOUS
 10
366.38510706138038
 20
-8.611588550966605
 30
0.0
 11
367.19616543343398
 21
-9.1535204292784513
 31
0.0
  0
LINE
  5
4DD
  8
0
  6
CONTINUOUS
 10
369.9206409673132
 20
-8.611588550966605
 30
0.0
 11
369.1095825952595
 21
-9.1535204292784513
 31
0.0
  0
ENDBLK
  5
4DF
  8
0
  0
BLOCK
  8
0
  2
*U20
 70
     1
 10
0.0
 20
0.0
 30
0.0
  3
*U20
  1

  0
TEXT
  5
4E1
  8
0
 10
603.95317592917718
 20
-104.0094057836456
 30
0.0
 40
12.2941616766467
  1
Eaves Lining
  7
ARIAL
  0
ENDBLK
  5
4E3
  8
0
  0
BLOCK
  8
0
  2
*U21
 70
     1
 10
0.0
 20
0.0
 30
0.0
  3
*U21
  1

  0
SOLID
  5
4E5
  8
0
  6
CONTINUOUS
 10
-90.334271585586436
 20
102.89590230012401
 30
0.0
 11
-91.290980166499153
 21
102.7056011314022
 31
0.0
 12
-89.377563004673718
 22
102.7056011314022
 32
0.0
 13
-89.377563004673718
 23
102.7056011314022
 33
0.0
210
0.0
220
0.0
230
1.0
  0
SOLID
  5
4E6
  8
0
  6
CONTINUOUS
 10
-91.290980166499153
 20
102.7056011314022
 30
0.0
 11
-92.102038538552804
 21
102.1636692530904
 31
0.0
 12
-88.566504632620067
 22
102.1636692530904
 32
0.0
 13
-88.566504632620067
 23
102.1636692530904
 33
0.0
210
0.0
220
0.0
230
1.0
  0
SOLID
  5
4E7
  8
0
  6
CONTINUOUS
 10
91.290980166499153
 20
102.7056011314022
 30
0.0
 11
89.377563004673718
 21
102.7056011314022
 31
0.0
 12
88.566504632620067
 22
102.1636692530904
 32
0.0
 13
88.566504632620067
 23
102.1636692530904
 33
0.0
210
0.0
220
0.0
230
-1.0
  0
SOLID
  5
4E8
  8
0
  6
CONTINUOUS
 10
-92.102038538552804
 20
102.1636692530904
 30
0.0
 11
-92.643970416864633
 21
101.3526108810367
 31
0.0
 12
-88.024572754308224
 22
101.3526108810367
 32
0.0
 13
-88.024572754308224
 23
101.3526108810367
 33
0.0
210
0.0
220
0.0
230
1.0
  0
SOLID
  5
4E9
  8
0
  6
CONTINUOUS
 10
92.102038538552804
 20
102.1636692530904
 30
0.0
 11
88.566504632620067
 21
102.1636692530904
 31
0.0
 12
88.024572754308224
 22
101.3526108810367
 32
0.0
 13
88.024572754308224
 23
101.3526108810367
 33
0.0
210
0.0
220
0.0
230
-1.0
  0
SOLID
  5
4EA
  8
0
  6
CONTINUOUS
 10
-92.643970416864633
 20
101.3526108810367
 30
0.0
 11
-92.834271585586436
 21
100.39590230012401
 31
0.0
 12
-87.834271585586436
 22
100.39590230012401
 32
0.0
 13
-87.834271585586436
 23
100.39590230012401
 33
0.0
210
0.0
220
0.0
230
1.0
  0
SOLID
  5
4EB
  8
0
  6
CONTINUOUS
 10
92.643970416864633
 20
101.3526108810367
 30
0.0
 11
88.024572754308224
 21
101.3526108810367
 31
0.0
 12
87.834271585586436
 22
100.39590230012401
 32
0.0
 13
87.834271585586436
 23
100.39590230012401
 33
0.0
210
0.0
220
0.0
230
-1.0
  0
SOLID
  5
4EC
  8
0
  6
CONTINUOUS
 10
-92.834271585586436
 20
100.39590230012401
 30
0.0
 11
-92.643970416864633
 21
99.439193719211332
 31
0.0
 12
-88.024572754308224
 22
99.439193719211332
 32
0.0
 13
-88.024572754308224
 23
99.439193719211332
 33
0.0
  0
SOLID
  5
4ED
  8
0
  6
CONTINUOUS
 10
92.834271585586436
 20
100.39590230012401
 30
0.0
 11
87.834271585586436
 21
100.39590230012401
 31
0.0
 12
88.024572754308224
 22
99.439193719211332
 32
0.0
 13
88.024572754308224
 23
99.439193719211332
 33
0.0
210
0.0
220
0.0
230
-1.0
  0
SOLID
  5
4EE
  8
0
  6
CONTINUOUS
 10
-92.643970416864633
 20
99.439193719211332
 30
0.0
 11
-92.102038538552804
 21
98.628135347157667
 31
0.0
 12
-88.566504632620067
 22
98.628135347157667
 32
0.0
 13
-88.566504632620067
 23
98.628135347157667
 33
0.0
210
0.0
220
0.0
230
1.0
  0
SOLID
  5
4EF
  8
0
  6
CONTINUOUS
 10
92.643970416864633
 20
99.439193719211332
 30
0.0
 11
88.024572754308224
 21
99.439193719211332
 31
0.0
 12
88.566504632620067
 22
98.628135347157667
 32
0.0
 13
88.566504632620067
 23
98.628135347157667
 33
0.0
210
0.0
220
0.0
230
-1.0
  0
SOLID
  5
4F0
  8
0
  6
CONTINUOUS
 10
91.290980166499153
 20
98.086203468845824
 30
0.0
 11
89.377563004673718
 21
98.086203468845824
 31
0.0
 12
90.334271585586436
 22
97.895902300124035
 32
0.0
 13
90.334271585586436
 23
97.895902300124035
 33
0.0
210
0.0
220
0.0
230
-1.0
  0
SOLID
  5
4F1
  8
0
  6
CONTINUOUS
 10
-92.102038538552804
 20
98.628135347157667
 30
0.0
 11
-91.290980166499153
 21
98.086203468845824
 31
0.0
 12
-89.377563004673718
 22
98.086203468845824
 32
0.0
 13
-89.377563004673718
 23
98.086203468845824
 33
0.0
210
0.0
220
0.0
230
1.0
  0
SOLID
  5
4F2
  8
0
  6
CONTINUOUS
 10
92.102038538552804
 20
98.628135347157667
 30
0.0
 11
88.566504632620067
 21
98.628135347157667
 31
0.0
 12
89.377563004673718
 22
98.086203468845824
 32
0.0
 13
89.377563004673718
 23
98.086203468845824
 33
0.0
210
0.0
220
0.0
230
-1.0
  0
LINE
  5
4F3
  8
0
  6
CONTINUOUS
 10
-90.334271585586436
 20
102.89590230012401
 30
0.0
 11
-91.290980166499153
 21
102.7056011314022
 31
0.0
  0
LINE
  5
4F4
  8
0
  6
CONTINUOUS
 10
-89.377563004673718
 20
102.7056011314022
 30
0.0
 11
-90.334271585586436
 21
102.89590230012401
 31
0.0
  0
LINE
  5
4F5
  8
0
  6
CONTINUOUS
 10
-91.290980166499153
 20
102.7056011314022
 30
0.0
 11
-92.102038538552804
 21
102.1636692530904
 31
0.0
  0
LINE
  5
4F6
  8
0
  6
CONTINUOUS
 10
-89.377563004673718
 20
102.7056011314022
 30
0.0
 11
-88.566504632620067
 21
102.1636692530904
 31
0.0
  0
LINE
  5
4F7
  8
0
  6
CONTINUOUS
 10
-92.102038538552804
 20
102.1636692530904
 30
0.0
 11
-92.643970416864633
 21
101.3526108810367
 31
0.0
  0
LINE
  5
4F8
  8
0
  6
CONTINUOUS
 10
-88.566504632620067
 20
102.1636692530904
 30
0.0
 11
-88.024572754308224
 21
101.3526108810367
 31
0.0
  0
LINE
  5
4F9
  8
0
  6
CONTINUOUS
 10
-92.643970416864633
 20
101.3526108810367
 30
0.0
 11
-92.834271585586436
 21
100.39590230012401
 31
0.0
  0
LINE
  5
4FA
  8
0
  6
CONTINUOUS
 10
-88.024572754308224
 20
101.3526108810367
 30
0.0
 11
-87.834271585586436
 21
100.39590230012401
 31
0.0
  0
LINE
  5
4FB
  8
0
  6
CONTINUOUS
 10
-92.834271585586436
 20
100.39590230012401
 30
0.0
 11
-92.643970416864633
 21
99.439193719211332
 31
0.0
  0
LINE
  5
4FC
  8
0
  6
CONTINUOUS
 10
-87.834271585586436
 20
100.39590230012401
 30
0.0
 11
-88.024572754308224
 21
99.439193719211332
 31
0.0
  0
LINE
  5
4FD
  8
0
  6
CONTINUOUS
 10
-92.643970416864633
 20
99.439193719211332
 30
0.0
 11
-92.102038538552804
 21
98.628135347157667
 31
0.0
  0
LINE
  5
4FE
  8
0
  6
CONTINUOUS
 10
-88.024572754308224
 20
99.439193719211332
 30
0.0
 11
-88.566504632620067
 21
98.628135347157667
 31
0.0
  0
LINE
  5
4FF
  8
0
  6
CONTINUOUS
 10
-89.377563004673718
 20
98.086203468845824
 30
0.0
 11
-90.334271585586436
 21
97.895902300124035
 31
0.0
  0
LINE
  5
500
  8
0
  6
CONTINUOUS
 10
-90.334271585586436
 20
97.895902300124035
 30
0.0
 11
-91.290980166499153
 21
98.086203468845824
 31
0.0
  0
LINE
  5
501
  8
0
  6
CONTINUOUS
 10
-92.102038538552804
 20
98.628135347157667
 30
0.0
 11
-91.290980166499153
 21
98.086203468845824
 31
0.0
  0
LINE
  5
502
  8
0
  6
CONTINUOUS
 10
-88.566504632620067
 20
98.628135347157667
 30
0.0
 11
-89.377563004673718
 21
98.086203468845824
 31
0.0
  0
ENDBLK
  5
504
  8
0
  0
BLOCK
  8
0
  2
*U22
 70
     1
 10
0.0
 20
0.0
 30
0.0
  3
*U22
  1

  0
TEXT
  5
506
  8
0
 10
-337.80516478472663
 20
94.722825377047116
 30
0.0
 40
12.2941616766467
  1
Batten
  7
ARIAL
  0
ENDBLK
  5
508
  8
0
  0
BLOCK
  8
0
  2
*U23
 70
     1
 10
0.0
 20
0.0
 30
0.0
  3
*U23
  1

  0
SOLID
  5
50A
  8
0
  6
CONTINUOUS
 10
-85.013437837416305
 20
43.302564320617762
 30
0.0
 11
-85.970146418329037
 21
43.112263151895966
 31
0.0
 12
-84.056729256503587
 22
43.112263151895966
 32
0.0
 13
-84.056729256503587
 23
43.112263151895966
 33
0.0
210
0.0
220
0.0
230
1.0
  0
SOLID
  5
50B
  8
0
  6
CONTINUOUS
 10
-85.970146418329037
 20
43.112263151895966
 30
0.0
 11
-86.781204790382674
 21
42.570331273584117
 31
0.0
 12
-83.245670884449936
 22
42.570331273584117
 32
0.0
 13
-83.245670884449936
 23
42.570331273584117
 33
0.0
210
0.0
220
0.0
230
1.0
  0
SOLID
  5
50C
  8
0
  6
CONTINUOUS
 10
85.970146418329037
 20
43.112263151895966
 30
0.0
 11
84.056729256503587
 21
43.112263151895966
 31
0.0
 12
83.245670884449936
 22
42.570331273584117
 32
0.0
 13
83.245670884449936
 23
42.570331273584117
 33
0.0
210
0.0
220
0.0
230
-1.0
  0
SOLID
  5
50D
  8
0
  6
CONTINUOUS
 10
-86.781204790382674
 20
42.570331273584117
 30
0.0
 11
-87.323136668694517
 21
41.759272901530473
 31
0.0
 12
-82.703739006138093
 22
41.759272901530473
 32
0.0
 13
-82.703739006138093
 23
41.759272901530473
 33
0.0
  0
SOLID
  5
50E
  8
0
  6
CONTINUOUS
 10
86.781204790382674
 20
42.570331273584117
 30
0.0
 11
83.245670884449936
 21
42.570331273584117
 31
0.0
 12
82.703739006138093
 22
41.759272901530473
 32
0.0
 13
82.703739006138093
 23
41.759272901530473
 33
0.0
210
0.0
220
0.0
230
-1.0
  0
SOLID
  5
50F
  8
0
  6
CONTINUOUS
 10
-87.323136668694517
 20
41.759272901530473
 30
0.0
 11
-87.513437837416305
 21
40.802564320617762
 31
0.0
 12
-82.513437837416305
 22
40.802564320617762
 32
0.0
 13
-82.513437837416305
 23
40.802564320617762
 33
0.0
210
0.0
220
0.0
230
1.0
  0
SOLID
  5
510
  8
0
  6
CONTINUOUS
 10
87.323136668694517
 20
41.759272901530473
 30
0.0
 11
82.703739006138093
 21
41.759272901530473
 31
0.0
 12
82.513437837416305
 22
40.802564320617762
 32
0.0
 13
82.513437837416305
 23
40.802564320617762
 33
0.0
210
0.0
220
0.0
230
-1.0
  0
SOLID
  5
511
  8
0
  6
CONTINUOUS
 10
-87.513437837416305
 20
40.802564320617762
 30
0.0
 11
-87.323136668694517
 21
39.84585573970503
 31
0.0
 12
-82.703739006138093
 22
39.84585573970503
 32
0.0
 13
-82.703739006138093
 23
39.84585573970503
 33
0.0
  0
SOLID
  5
512
  8
0
  6
CONTINUOUS
 10
87.513437837416305
 20
40.802564320617762
 30
0.0
 11
82.513437837416305
 21
40.802564320617762
 31
0.0
 12
82.703739006138093
 22
39.84585573970503
 32
0.0
 13
82.703739006138093
 23
39.84585573970503
 33
0.0
210
0.0
220
0.0
230
-1.0
  0
SOLID
  5
513
  8
0
  6
CONTINUOUS
 10
-87.323136668694517
 20
39.84585573970503
 30
0.0
 11
-86.781204790382674
 21
39.034797367651379
 31
0.0
 12
-83.245670884449936
 22
39.034797367651379
 32
0.0
 13
-83.245670884449936
 23
39.034797367651379
 33
0.0
210
0.0
220
0.0
230
1.0
  0
SOLID
  5
514
  8
0
  6
CONTINUOUS
 10
87.323136668694517
 20
39.84585573970503
 30
0.0
 11
82.703739006138093
 21
39.84585573970503
 31
0.0
 12
83.245670884449936
 22
39.034797367651379
 32
0.0
 13
83.245670884449936
 23
39.034797367651379
 33
0.0
210
0.0
220
0.0
230
-1.0
  0
SOLID
  5
515
  8
0
  6
CONTINUOUS
 10
85.970146418329023
 20
38.492865489339529
 30
0.0
 11
84.056729256503573
 21
38.492865489339529
 31
0.0
 12
85.013437837416305
 22
38.302564320617762
 32
0.0
 13
85.013437837416305
 23
38.302564320617762
 33
0.0
210
0.0
220
0.0
230
-1.0
  0
SOLID
  5
516
  8
0
  6
CONTINUOUS
 10
-86.781204790382674
 20
39.034797367651379
 30
0.0
 11
-85.970146418329023
 21
38.492865489339529
 31
0.0
 12
-84.056729256503573
 22
38.492865489339529
 32
0.0
 13
-84.056729256503573
 23
38.492865489339529
 33
0.0
210
0.0
220
0.0
230
1.0
  0
SOLID
  5
517
  8
0
  6
CONTINUOUS
 10
86.781204790382674
 20
39.034797367651379
 30
0.0
 11
83.245670884449936
 21
39.034797367651379
 31
0.0
 12
84.056729256503573
 22
38.492865489339529
 32
0.0
 13
84.056729256503573
 23
38.492865489339529
 33
0.0
210
0.0
220
0.0
230
-1.0
  0
LINE
  5
518
  8
0
  6
CONTINUOUS
 10
-85.013437837416305
 20
43.302564320617762
 30
0.0
 11
-85.970146418329037
 21
43.112263151895966
 31
0.0
  0
LINE
  5
519
  8
0
  6
CONTINUOUS
 10
-84.056729256503587
 20
43.112263151895966
 30
0.0
 11
-85.013437837416305
 21
43.302564320617762
 31
0.0
  0
LINE
  5
51A
  8
0
  6
CONTINUOUS
 10
-85.970146418329037
 20
43.112263151895966
 30
0.0
 11
-86.781204790382674
 21
42.570331273584117
 31
0.0
  0
LINE
  5
51B
  8
0
  6
CONTINUOUS
 10
-84.056729256503587
 20
43.112263151895966
 30
0.0
 11
-83.245670884449936
 21
42.570331273584117
 31
0.0
  0
LINE
  5
51C
  8
0
  6
CONTINUOUS
 10
-86.781204790382674
 20
42.570331273584117
 30
0.0
 11
-87.323136668694517
 21
41.759272901530473
 31
0.0
  0
LINE
  5
51D
  8
0
  6
CONTINUOUS
 10
-83.245670884449936
 20
42.570331273584117
 30
0.0
 11
-82.703739006138093
 21
41.759272901530473
 31
0.0
  0
LINE
  5
51E
  8
0
  6
CONTINUOUS
 10
-87.323136668694517
 20
41.759272901530473
 30
0.0
 11
-87.513437837416305
 21
40.802564320617762
 31
0.0
  0
LINE
  5
51F
  8
0
  6
CONTINUOUS
 10
-82.703739006138093
 20
41.759272901530473
 30
0.0
 11
-82.513437837416305
 21
40.802564320617762
 31
0.0
  0
LINE
  5
520
  8
0
  6
CONTINUOUS
 10
-87.513437837416305
 20
40.802564320617762
 30
0.0
 11
-87.323136668694517
 21
39.84585573970503
 31
0.0
  0
LINE
  5
521
  8
0
  6
CONTINUOUS
 10
-82.513437837416305
 20
40.802564320617762
 30
0.0
 11
-82.703739006138093
 21
39.84585573970503
 31
0.0
  0
LINE
  5
522
  8
0
  6
CONTINUOUS
 10
-87.323136668694517
 20
39.84585573970503
 30
0.0
 11
-86.781204790382674
 21
39.034797367651379
 31
0.0
  0
LINE
  5
523
  8
0
  6
CONTINUOUS
 10
-82.703739006138093
 20
39.84585573970503
 30
0.0
 11
-83.245670884449936
 21
39.034797367651379
 31
0.0
  0
LINE
  5
524
  8
0
  6
CONTINUOUS
 10
-84.056729256503573
 20
38.492865489339529
 30
0.0
 11
-85.013437837416305
 21
38.302564320617762
 31
0.0
  0
LINE
  5
525
  8
0
  6
CONTINUOUS
 10
-85.013437837416305
 20
38.302564320617762
 30
0.0
 11
-85.970146418329023
 21
38.492865489339529
 31
0.0
  0
LINE
  5
526
  8
0
  6
CONTINUOUS
 10
-86.781204790382674
 20
39.034797367651379
 30
0.0
 11
-85.970146418329023
 21
38.492865489339529
 31
0.0
  0
LINE
  5
527
  8
0
  6
CONTINUOUS
 10
-83.245670884449936
 20
39.034797367651379
 30
0.0
 11
-84.056729256503573
 21
38.492865489339529
 31
0.0
  0
ENDBLK
  5
529
  8
0
  0
BLOCK
  8
0
  2
*U24
 70
     1
 10
0.0
 20
0.0
 30
0.0
  3
*U24
  1

  0
TEXT
  5
52B
  8
0
 10
-337.37746884645298
 20
-11.051168787777939
 30
0.0
 40
12.2941616766467
  1
Outrigger
  7
ARIAL
  0
ENDBLK
  5
52D
  8
0
  0
BLOCK
  8
0
  2
*U25
 70
     1
 10
0.0
 20
0.0
 30
0.0
  3
*U25
  1

  0
SOLID
  5
52F
  8
0
  6
CONTINUOUS
 10
-112.690321755941
 20
80.144292542742804
 30
0.0
 11
-113.6470303368537
 21
79.953991374021044
 31
0.0
 12
-111.7336131750283
 22
79.953991374021044
 32
0.0
 13
-111.7336131750283
 23
79.953991374021044
 33
0.0
  0
SOLID
  5
530
  8
0
  6
CONTINUOUS
 10
-113.6470303368537
 20
79.953991374021044
 30
0.0
 11
-114.4580887089074
 21
79.412059495709187
 31
0.0
 12
-110.9225548029746
 22
79.412059495709187
 32
0.0
 13
-110.9225548029746
 23
79.412059495709187
 33
0.0
210
0.0
220
0.0
230
1.0
  0
SOLID
  5
531
  8
0
  6
CONTINUOUS
 10
113.6470303368537
 20
79.953991374021044
 30
0.0
 11
111.7336131750283
 21
79.953991374021044
 31
0.0
 12
110.9225548029746
 22
79.412059495709187
 32
0.0
 13
110.9225548029746
 23
79.412059495709187
 33
0.0
210
0.0
220
0.0
230
-1.0
  0
SOLID
  5
532
  8
0
  6
CONTINUOUS
 10
-114.4580887089074
 20
79.412059495709187
 30
0.0
 11
-115.0000205872192
 21
78.60100112365555
 31
0.0
 12
-110.3806229246628
 22
78.60100112365555
 32
0.0
 13
-110.3806229246628
 23
78.60100112365555
 33
0.0
210
0.0
220
0.0
230
1.0
  0
SOLID
  5
533
  8
0
  6
CONTINUOUS
 10
114.4580887089074
 20
79.412059495709187
 30
0.0
 11
110.9225548029746
 21
79.412059495709187
 31
0.0
 12
110.3806229246628
 22
78.60100112365555
 32
0.0
 13
110.3806229246628
 23
78.60100112365555
 33
0.0
210
0.0
220
0.0
230
-1.0
  0
SOLID
  5
534
  8
0
  6
CONTINUOUS
 10
-115.0000205872192
 20
78.60100112365555
 30
0.0
 11
-115.190321755941
 21
77.644292542742818
 31
0.0
 12
-110.190321755941
 22
77.644292542742818
 32
0.0
 13
-110.190321755941
 23
77.644292542742818
 33
0.0
210
0.0
220
0.0
230
1.0
  0
SOLID
  5
535
  8
0
  6
CONTINUOUS
 10
115.0000205872192
 20
78.60100112365555
 30
0.0
 11
110.3806229246628
 21
78.60100112365555
 31
0.0
 12
110.190321755941
 22
77.644292542742818
 32
0.0
 13
110.190321755941
 23
77.644292542742818
 33
0.0
210
0.0
220
0.0
230
-1.0
  0
SOLID
  5
536
  8
0
  6
CONTINUOUS
 10
-115.190321755941
 20
77.644292542742818
 30
0.0
 11
-115.0000205872192
 21
76.687583961830086
 31
0.0
 12
-110.3806229246628
 22
76.687583961830086
 32
0.0
 13
-110.3806229246628
 23
76.687583961830086
 33
0.0
210
0.0
220
0.0
230
1.0
  0
SOLID
  5
537
  8
0
  6
CONTINUOUS
 10
115.190321755941
 20
77.644292542742818
 30
0.0
 11
110.190321755941
 21
77.644292542742818
 31
0.0
 12
110.3806229246628
 22
76.687583961830086
 32
0.0
 13
110.3806229246628
 23
76.687583961830086
 33
0.0
210
0.0
220
0.0
230
-1.0
  0
SOLID
  5
538
  8
0
  6
CONTINUOUS
 10
-115.0000205872192
 20
76.687583961830086
 30
0.0
 11
-114.4580887089074
 21
75.876525589776435
 31
0.0
 12
-110.9225548029746
 22
75.876525589776435
 32
0.0
 13
-110.9225548029746
 23
75.876525589776435
 33
0.0
210
0.0
220
0.0
230
1.0
  0
SOLID
  5
539
  8
0
  6
CONTINUOUS
 10
115.0000205872192
 20
76.687583961830086
 30
0.0
 11
110.3806229246628
 21
76.687583961830086
 31
0.0
 12
110.9225548029746
 22
75.876525589776435
 32
0.0
 13
110.9225548029746
 23
75.876525589776435
 33
0.0
210
0.0
220
0.0
230
-1.0
  0
SOLID
  5
53A
  8
0
  6
CONTINUOUS
 10
113.6470303368537
 20
75.334593711464592
 30
0.0
 11
111.7336131750283
 21
75.334593711464592
 31
0.0
 12
112.690321755941
 22
75.144292542742818
 32
0.0
 13
112.690321755941
 23
75.144292542742818
 33
0.0
210
0.0
220
0.0
230
-1.0
  0
SOLID
  5
53B
  8
0
  6
CONTINUOUS
 10
-114.4580887089074
 20
75.876525589776435
 30
0.0
 11
-113.6470303368537
 21
75.334593711464592
 31
0.0
 12
-111.7336131750283
 22
75.334593711464592
 32
0.0
 13
-111.7336131750283
 23
75.334593711464592
 33
0.0
  0
SOLID
  5
53C
  8
0
  6
CONTINUOUS
 10
114.4580887089074
 20
75.876525589776435
 30
0.0
 11
110.9225548029746
 21
75.876525589776435
 31
0.0
 12
111.7336131750283
 22
75.334593711464592
 32
0.0
 13
111.7336131750283
 23
75.334593711464592
 33
0.0
210
0.0
220
0.0
230
-1.0
  0
LINE
  5
53D
  8
0
  6
CONTINUOUS
 10
-112.690321755941
 20
80.144292542742804
 30
0.0
 11
-113.6470303368537
 21
79.953991374021044
 31
0.0
  0
LINE
  5
53E
  8
0
  6
CONTINUOUS
 10
-111.7336131750283
 20
79.953991374021044
 30
0.0
 11
-112.690321755941
 21
80.144292542742804
 31
0.0
  0
LINE
  5
53F
  8
0
  6
CONTINUOUS
 10
-113.6470303368537
 20
79.953991374021044
 30
0.0
 11
-114.4580887089074
 21
79.412059495709187
 31
0.0
  0
LINE
  5
540
  8
0
  6
CONTINUOUS
 10
-111.7336131750283
 20
79.953991374021044
 30
0.0
 11
-110.9225548029746
 21
79.412059495709187
 31
0.0
  0
LINE
  5
541
  8
0
  6
CONTINUOUS
 10
-114.4580887089074
 20
79.412059495709187
 30
0.0
 11
-115.0000205872192
 21
78.60100112365555
 31
0.0
  0
LINE
  5
542
  8
0
  6
CONTINUOUS
 10
-110.9225548029746
 20
79.412059495709187
 30
0.0
 11
-110.3806229246628
 21
78.60100112365555
 31
0.0
  0
LINE
  5
543
  8
0
  6
CONTINUOUS
 10
-115.0000205872192
 20
78.60100112365555
 30
0.0
 11
-115.190321755941
 21
77.644292542742818
 31
0.0
  0
LINE
  5
544
  8
0
  6
CONTINUOUS
 10
-110.3806229246628
 20
78.60100112365555
 30
0.0
 11
-110.190321755941
 21
77.644292542742818
 31
0.0
  0
LINE
  5
545
  8
0
  6
CONTINUOUS
 10
-115.190321755941
 20
77.644292542742818
 30
0.0
 11
-115.0000205872192
 21
76.687583961830086
 31
0.0
  0
LINE
  5
546
  8
0
  6
CONTINUOUS
 10
-110.190321755941
 20
77.644292542742818
 30
0.0
 11
-110.3806229246628
 21
76.687583961830086
 31
0.0
  0
LINE
  5
547
  8
0
  6
CONTINUOUS
 10
-115.0000205872192
 20
76.687583961830086
 30
0.0
 11
-114.4580887089074
 21
75.876525589776435
 31
0.0
  0
LINE
  5
548
  8
0
  6
CONTINUOUS
 10
-110.3806229246628
 20
76.687583961830086
 30
0.0
 11
-110.9225548029746
 21
75.876525589776435
 31
0.0
  0
LINE
  5
549
  8
0
  6
CONTINUOUS
 10
-111.7336131750283
 20
75.334593711464592
 30
0.0
 11
-112.690321755941
 21
75.144292542742818
 31
0.0
  0
LINE
  5
54A
  8
0
  6
CONTINUOUS
 10
-112.690321755941
 20
75.144292542742818
 30
0.0
 11
-113.6470303368537
 21
75.334593711464592
 31
0.0
  0
LINE
  5
54B
  8
0
  6
CONTINUOUS
 10
-114.4580887089074
 20
75.876525589776435
 30
0.0
 11
-113.6470303368537
 21
75.334593711464592
 31
0.0
  0
LINE
  5
54C
  8
0
  6
CONTINUOUS
 10
-110.9225548029746
 20
75.876525589776435
 30
0.0
 11
-111.7336131750283
 21
75.334593711464592
 31
0.0
  0
ENDBLK
  5
54E
  8
0
  0
BLOCK
  8
0
  2
*U26
 70
     1
 10
0.0
 20
0.0
 30
0.0
  3
*U26
  1

  0
TEXT
  5
550
  8
0
 10
-337.89741292827568
 20
41.874674543549872
 30
0.0
 40
12.2941616766467
  1
Underlay
  7
ARIAL
  0
ENDBLK
  5
552
  8
0
  0
BLOCK
  8
0
  2
*U27
 70
     1
 10
0.0
 20
0.0
 30
0.0
  3
*U27
  1

  0
SOLID
  5
554
  8
0
  6
CONTINUOUS
 10
-88.739553407247627
 20
147.99256893730899
 30
0.0
 11
-89.696261988160344
 21
147.8022677685872
 31
0.0
 12
-87.782844826334909
 22
147.8022677685872
 32
0.0
 13
-87.782844826334909
 23
147.8022677685872
 33
0.0
210
0.0
220
0.0
230
1.0
  0
SOLID
  5
555
  8
0
  6
CONTINUOUS
 10
-89.696261988160344
 20
147.8022677685872
 30
0.0
 11
-90.507320360213996
 21
147.2603358902754
 31
0.0
 12
-86.971786454281258
 22
147.2603358902754
 32
0.0
 13
-86.971786454281258
 23
147.2603358902754
 33
0.0
210
0.0
220
0.0
230
1.0
  0
SOLID
  5
556
  8
0
  6
CONTINUOUS
 10
89.696261988160344
 20
147.8022677685872
 30
0.0
 11
87.782844826334909
 21
147.8022677685872
 31
0.0
 12
86.971786454281258
 22
147.2603358902754
 32
0.0
 13
86.971786454281258
 23
147.2603358902754
 33
0.0
210
0.0
220
0.0
230
-1.0
  0
SOLID
  5
557
  8
0
  6
CONTINUOUS
 10
-90.507320360213996
 20
147.2603358902754
 30
0.0
 11
-91.049252238525838
 21
146.44927751822169
 31
0.0
 12
-86.429854575969415
 22
146.44927751822169
 32
0.0
 13
-86.429854575969415
 23
146.44927751822169
 33
0.0
  0
SOLID
  5
558
  8
0
  6
CONTINUOUS
 10
90.507320360213996
 20
147.2603358902754
 30
0.0
 11
86.971786454281258
 21
147.2603358902754
 31
0.0
 12
86.429854575969415
 22
146.44927751822169
 32
0.0
 13
86.429854575969415
 23
146.44927751822169
 33
0.0
210
0.0
220
0.0
230
-1.0
  0
SOLID
  5
559
  8
0
  6
CONTINUOUS
 10
-91.049252238525838
 20
146.44927751822169
 30
0.0
 11
-91.239553407247627
 21
145.49256893730899
 31
0.0
 12
-86.239553407247627
 22
145.49256893730899
 32
0.0
 13
-86.239553407247627
 23
145.49256893730899
 33
0.0
210
0.0
220
0.0
230
1.0
  0
SOLID
  5
55A
  8
0
  6
CONTINUOUS
 10
91.049252238525838
 20
146.44927751822169
 30
0.0
 11
86.429854575969415
 21
146.44927751822169
 31
0.0
 12
86.239553407247627
 22
145.49256893730899
 32
0.0
 13
86.239553407247627
 23
145.49256893730899
 33
0.0
210
0.0
220
0.0
230
-1.0
  0
SOLID
  5
55B
  8
0
  6
CONTINUOUS
 10
-91.239553407247627
 20
145.49256893730899
 30
0.0
 11
-91.049252238525838
 21
144.53586035639631
 31
0.0
 12
-86.429854575969415
 22
144.53586035639631
 32
0.0
 13
-86.429854575969415
 23
144.53586035639631
 33
0.0
  0
SOLID
  5
55C
  8
0
  6
CONTINUOUS
 10
91.239553407247627
 20
145.49256893730899
 30
0.0
 11
86.239553407247627
 21
145.49256893730899
 31
0.0
 12
86.429854575969415
 22
144.53586035639631
 32
0.0
 13
86.429854575969415
 23
144.53586035639631
 33
0.0
210
0.0
220
0.0
230
-1.0
  0
SOLID
  5
55D
  8
0
  6
CONTINUOUS
 10
-91.049252238525838
 20
144.53586035639631
 30
0.0
 11
-90.507320360213996
 21
143.72480198434261
 31
0.0
 12
-86.971786454281258
 22
143.72480198434261
 32
0.0
 13
-86.971786454281258
 23
143.72480198434261
 33
0.0
210
0.0
220
0.0
230
1.0
  0
SOLID
  5
55E
  8
0
  6
CONTINUOUS
 10
91.049252238525838
 20
144.53586035639631
 30
0.0
 11
86.429854575969415
 21
144.53586035639631
 31
0.0
 12
86.971786454281258
 22
143.72480198434261
 32
0.0
 13
86.971786454281258
 23
143.72480198434261
 33
0.0
210
0.0
220
0.0
230
-1.0
  0
SOLID
  5
55F
  8
0
  6
CONTINUOUS
 10
89.696261988160344
 20
143.1828701060308
 30
0.0
 11
87.782844826334909
 21
143.1828701060308
 31
0.0
 12
88.739553407247627
 22
142.99256893730899
 32
0.0
 13
88.739553407247627
 23
142.99256893730899
 33
0.0
210
0.0
220
0.0
230
-1.0
  0
SOLID
  5
560
  8
0
  6
CONTINUOUS
 10
-90.507320360213996
 20
143.72480198434261
 30
0.0
 11
-89.696261988160344
 21
143.1828701060308
 31
0.0
 12
-87.782844826334909
 22
143.1828701060308
 32
0.0
 13
-87.782844826334909
 23
143.1828701060308
 33
0.0
210
0.0
220
0.0
230
1.0
  0
SOLID
  5
561
  8
0
  6
CONTINUOUS
 10
90.507320360213996
 20
143.72480198434261
 30
0.0
 11
86.971786454281258
 21
143.72480198434261
 31
0.0
 12
87.782844826334909
 22
143.1828701060308
 32
0.0
 13
87.782844826334909
 23
143.1828701060308
 33
0.0
210
0.0
220
0.0
230
-1.0
  0
LINE
  5
562
  8
0
  6
CONTINUOUS
 10
-88.739553407247627
 20
147.99256893730899
 30
0.0
 11
-89.696261988160344
 21
147.8022677685872
 31
0.0
  0
LINE
  5
563
  8
0
  6
CONTINUOUS
 10
-87.782844826334909
 20
147.8022677685872
 30
0.0
 11
-88.739553407247627
 21
147.99256893730899
 31
0.0
  0
LINE
  5
564
  8
0
  6
CONTINUOUS
 10
-89.696261988160344
 20
147.8022677685872
 30
0.0
 11
-90.507320360213996
 21
147.2603358902754
 31
0.0
  0
LINE
  5
565
  8
0
  6
CONTINUOUS
 10
-87.782844826334909
 20
147.8022677685872
 30
0.0
 11
-86.971786454281258
 21
147.2603358902754
 31
0.0
  0
LINE
  5
566
  8
0
  6
CONTINUOUS
 10
-90.507320360213996
 20
147.2603358902754
 30
0.0
 11
-91.049252238525838
 21
146.44927751822169
 31
0.0
  0
LINE
  5
567
  8
0
  6
CONTINUOUS
 10
-86.971786454281258
 20
147.2603358902754
 30
0.0
 11
-86.429854575969415
 21
146.44927751822169
 31
0.0
  0
LINE
  5
568
  8
0
  6
CONTINUOUS
 10
-91.049252238525838
 20
146.44927751822169
 30
0.0
 11
-91.239553407247627
 21
145.49256893730899
 31
0.0
  0
LINE
  5
569
  8
0
  6
CONTINUOUS
 10
-86.429854575969415
 20
146.44927751822169
 30
0.0
 11
-86.239553407247627
 21
145.49256893730899
 31
0.0
  0
LINE
  5
56A
  8
0
  6
CONTINUOUS
 10
-91.239553407247627
 20
145.49256893730899
 30
0.0
 11
-91.049252238525838
 21
144.53586035639631
 31
0.0
  0
LINE
  5
56B
  8
0
  6
CONTINUOUS
 10
-86.239553407247627
 20
145.49256893730899
 30
0.0
 11
-86.429854575969415
 21
144.53586035639631
 31
0.0
  0
LINE
  5
56C
  8
0
  6
CONTINUOUS
 10
-91.049252238525838
 20
144.53586035639631
 30
0.0
 11
-90.507320360213996
 21
143.72480198434261
 31
0.0
  0
LINE
  5
56D
  8
0
  6
CONTINUOUS
 10
-86.429854575969415
 20
144.53586035639631
 30
0.0
 11
-86.971786454281258
 21
143.72480198434261
 31
0.0
  0
LINE
  5
56E
  8
0
  6
CONTINUOUS
 10
-87.782844826334909
 20
143.1828701060308
 30
0.0
 11
-88.739553407247627
 21
142.99256893730899
 31
0.0
  0
LINE
  5
56F
  8
0
  6
CONTINUOUS
 10
-88.739553407247627
 20
142.99256893730899
 30
0.0
 11
-89.696261988160344
 21
143.1828701060308
 31
0.0
  0
LINE
  5
570
  8
0
  6
CONTINUOUS
 10
-90.507320360213996
 20
143.72480198434261
 30
0.0
 11
-89.696261988160344
 21
143.1828701060308
 31
0.0
  0
LINE
  5
571
  8
0
  6
CONTINUOUS
 10
-86.971786454281258
 20
143.72480198434261
 30
0.0
 11
-87.782844826334909
 21
143.1828701060308
 31
0.0
  0
ENDBLK
  5
573
  8
0
  0
BLOCK
  8
0
  2
*U28
 70
     1
 10
0.0
 20
0.0
 30
0.0
  3
*U28
  1

  0
TEXT
  5
575
  8
0
 10
-337.82193717446279
 20
191.3324263557312
 30
0.0
 40
12.2941616766467
  1
Metrotile Antica Tile
  7
ARIAL
  0
ENDBLK
  5
577
  8
0
  0
BLOCK
  8
0
  2
*U29
 70
     1
 10
0.0
 20
0.0
 30
0.0
  3
*U29
  1

  0
SOLID
  5
579
  8
0
  6
CONTINUOUS
 10
494.38802270240018
 20
168.89566919955229
 30
0.0
 11
493.43131412148739
 21
168.70536803083061
 31
0.0
 12
495.3447312833128
 22
168.70536803083061
 32
0.0
 13
495.3447312833128
 23
168.70536803083061
 33
0.0
210
0.0
220
0.0
230
1.0
  0
SOLID
  5
57A
  8
0
  6
CONTINUOUS
 10
493.43131412148739
 20
168.70536803083061
 30
0.0
 11
492.62025574943368
 21
168.1634361525187
 31
0.0
 12
496.1557896553665
 22
168.1634361525187
 32
0.0
 13
496.1557896553665
 23
168.1634361525187
 33
0.0
210
0.0
220
0.0
230
1.0
  0
SOLID
  5
57B
  8
0
  6
CONTINUOUS
 10
-493.43131412148739
 20
168.70536803083061
 30
0.0
 11
-495.3447312833128
 21
168.70536803083061
 31
0.0
 12
-496.1557896553665
 22
168.1634361525187
 32
0.0
 13
-496.1557896553665
 23
168.1634361525187
 33
0.0
210
0.0
220
0.0
230
-1.0
  0
SOLID
  5
57C
  8
0
  6
CONTINUOUS
 10
492.62025574943368
 20
168.1634361525187
 30
0.0
 11
492.07832387112188
 21
167.3523777804651
 31
0.0
 12
496.6977215336783
 22
167.3523777804651
 32
0.0
 13
496.6977215336783
 23
167.3523777804651
 33
0.0
210
0.0
220
0.0
230
1.0
  0
SOLID
  5
57D
  8
0
  6
CONTINUOUS
 10
-492.62025574943368
 20
168.1634361525187
 30
0.0
 11
-496.1557896553665
 21
168.1634361525187
 31
0.0
 12
-496.6977215336783
 22
167.3523777804651
 32
0.0
 13
-496.6977215336783
 23
167.3523777804651
 33
0.0
210
0.0
220
0.0
230
-1.0
  0
SOLID
  5
57E
  8
0
  6
CONTINUOUS
 10
492.07832387112188
 20
167.3523777804651
 30
0.0
 11
491.88802270240012
 21
166.39566919955229
 31
0.0
 12
496.88802270240012
 22
166.39566919955229
 32
0.0
 13
496.88802270240012
 23
166.39566919955229
 33
0.0
210
0.0
220
0.0
230
1.0
  0
SOLID
  5
57F
  8
0
  6
CONTINUOUS
 10
-492.07832387112188
 20
167.3523777804651
 30
0.0
 11
-496.6977215336783
 21
167.3523777804651
 31
0.0
 12
-496.88802270240012
 22
166.39566919955229
 32
0.0
 13
-496.88802270240012
 23
166.39566919955229
 33
0.0
210
0.0
220
0.0
230
-1.0
  0
SOLID
  5
580
  8
0
  6
CONTINUOUS
 10
491.88802270240012
 20
166.39566919955229
 30
0.0
 11
492.07832387112188
 21
165.43896061863961
 31
0.0
 12
496.6977215336783
 22
165.43896061863961
 32
0.0
 13
496.6977215336783
 23
165.43896061863961
 33
0.0
210
0.0
220
0.0
230
1.0
  0
SOLID
  5
581
  8
0
  6
CONTINUOUS
 10
-491.88802270240012
 20
166.39566919955229
 30
0.0
 11
-496.88802270240012
 21
166.39566919955229
 31
0.0
 12
-496.6977215336783
 22
165.43896061863961
 32
0.0
 13
-496.6977215336783
 23
165.43896061863961
 33
0.0
210
0.0
220
0.0
230
-1.0
  0
SOLID
  5
582
  8
0
  6
CONTINUOUS
 10
492.07832387112188
 20
165.43896061863961
 30
0.0
 11
492.62025574943368
 21
164.62790224658599
 31
0.0
 12
496.1557896553665
 22
164.62790224658599
 32
0.0
 13
496.1557896553665
 23
164.62790224658599
 33
0.0
210
0.0
220
0.0
230
1.0
  0
SOLID
  5
583
  8
0
  6
CONTINUOUS
 10
-492.07832387112188
 20
165.43896061863961
 30
0.0
 11
-496.6977215336783
 21
165.43896061863961
 31
0.0
 12
-496.1557896553665
 22
164.62790224658599
 32
0.0
 13
-496.1557896553665
 23
164.62790224658599
 33
0.0
210
0.0
220
0.0
230
-1.0
  0
SOLID
  5
584
  8
0
  6
CONTINUOUS
 10
-493.43131412148739
 20
164.0859703682741
 30
0.0
 11
-495.3447312833128
 21
164.0859703682741
 31
0.0
 12
-494.38802270240018
 22
163.8956691995524
 32
0.0
 13
-494.38802270240018
 23
163.8956691995524
 33
0.0
210
0.0
220
0.0
230
-1.0
  0
SOLID
  5
585
  8
0
  6
CONTINUOUS
 10
492.62025574943368
 20
164.62790224658599
 30
0.0
 11
493.43131412148739
 21
164.0859703682741
 31
0.0
 12
495.3447312833128
 22
164.0859703682741
 32
0.0
 13
495.3447312833128
 23
164.0859703682741
 33
0.0
210
0.0
220
0.0
230
1.0
  0
SOLID
  5
586
  8
0
  6
CONTINUOUS
 10
-492.62025574943368
 20
164.62790224658599
 30
0.0
 11
-496.1557896553665
 21
164.62790224658599
 31
0.0
 12
-495.3447312833128
 22
164.0859703682741
 32
0.0
 13
-495.3447312833128
 23
164.0859703682741
 33
0.0
210
0.0
220
0.0
230
-1.0
  0
LINE
  5
587
  8
0
  6
CONTINUOUS
 10
494.38802270240018
 20
168.89566919955229
 30
0.0
 11
493.43131412148739
 21
168.70536803083061
 31
0.0
  0
LINE
  5
588
  8
0
  6
CONTINUOUS
 10
495.3447312833128
 20
168.70536803083061
 30
0.0
 11
494.38802270240018
 21
168.89566919955229
 31
0.0
  0
LINE
  5
589
  8
0
  6
CONTINUOUS
 10
493.43131412148739
 20
168.70536803083061
 30
0.0
 11
492.62025574943368
 21
168.1634361525187
 31
0.0
  0
LINE
  5
58A
  8
0
  6
CONTINUOUS
 10
495.3447312833128
 20
168.70536803083061
 30
0.0
 11
496.1557896553665
 21
168.1634361525187
 31
0.0
  0
LINE
  5
58B
  8
0
  6
CONTINUOUS
 10
492.62025574943368
 20
168.1634361525187
 30
0.0
 11
492.07832387112188
 21
167.3523777804651
 31
0.0
  0
LINE
  5
58C
  8
0
  6
CONTINUOUS
 10
496.1557896553665
 20
168.1634361525187
 30
0.0
 11
496.6977215336783
 21
167.3523777804651
 31
0.0
  0
LINE
  5
58D
  8
0
  6
CONTINUOUS
 10
492.07832387112188
 20
167.3523777804651
 30
0.0
 11
491.88802270240012
 21
166.39566919955229
 31
0.0
  0
LINE
  5
58E
  8
0
  6
CONTINUOUS
 10
496.6977215336783
 20
167.3523777804651
 30
0.0
 11
496.88802270240012
 21
166.39566919955229
 31
0.0
  0
LINE
  5
58F
  8
0
  6
CONTINUOUS
 10
491.88802270240012
 20
166.39566919955229
 30
0.0
 11
492.07832387112188
 21
165.43896061863961
 31
0.0
  0
LINE
  5
590
  8
0
  6
CONTINUOUS
 10
496.88802270240012
 20
166.39566919955229
 30
0.0
 11
496.6977215336783
 21
165.43896061863961
 31
0.0
  0
LINE
  5
591
  8
0
  6
CONTINUOUS
 10
492.07832387112188
 20
165.43896061863961
 30
0.0
 11
492.62025574943368
 21
164.62790224658599
 31
0.0
  0
LINE
  5
592
  8
0
  6
CONTINUOUS
 10
496.6977215336783
 20
165.43896061863961
 30
0.0
 11
496.1557896553665
 21
164.62790224658599
 31
0.0
  0
LINE
  5
593
  8
0
  6
CONTINUOUS
 10
495.3447312833128
 20
164.0859703682741
 30
0.0
 11
494.38802270240018
 21
163.8956691995524
 31
0.0
  0
LINE
  5
594
  8
0
  6
CONTINUOUS
 10
494.38802270240018
 20
163.8956691995524
 30
0.0
 11
493.43131412148739
 21
164.0859703682741
 31
0.0
  0
LINE
  5
595
  8
0
  6
CONTINUOUS
 10
492.62025574943368
 20
164.62790224658599
 30
0.0
 11
493.43131412148739
 21
164.0859703682741
 31
0.0
  0
LINE
  5
596
  8
0
  6
CONTINUOUS
 10
496.1557896553665
 20
164.62790224658599
 30
0.0
 11
495.3447312833128
 21
164.0859703682741
 31
0.0
  0
ENDBLK
  5
598
  8
0
  0
BLOCK
  8
0
  2
*U30
 70
     1
 10
0.0
 20
0.0
 30
0.0
  3
*U30
  1

  0
TEXT
  5
59A
  8
0
 10
604.05381026759449
 20
316.62256542142569
 30
0.0
 40
12.2941616766467
  1
Barge flashing minimum cover
  7
ARIAL
  0
TEXT
  5
59B
  8
0
 10
604.74147824677948
 20
297.39179619065652
 30
0.0
 40
12.2941616766467
  1
over turn up 25mm at any
  7
ARIAL
  0
TEXT
  5
59C
  8
0
 10
604.17960319061615
 20
278.16102695988718
 30
0.0
 40
12.2941616766467
  1
point
  7
ARIAL
  0
ENDBLK
  5
59E
  8
0
  0
BLOCK
  8
0
  2
*U31
 70
     1
 10
0.0
 20
0.0
 30
0.0
  3
*U31
  1

  0
SOLID
  5
5AA
  8
0
  6
CONTINUOUS
 10
-160.01966414458951
 20
155.35481435964499
 30
0.0
 11
-160.0196641445896
 21
155.29594797323051
 31
0.0
 12
-147.3478522416649
 22
155.29594797323051
 32
0.0
 13
-147.3478522416649
 23
155.29594797323051
 33
0.0
  0
SOLID
  5
5AB
  8
0
  6
CONTINUOUS
 10
-160.0196641445896
 20
155.29594797323051
 30
0.0
 11
-160.01966414459079
 21
154.38790573205961
 31
0.0
 12
-134.82672952901109
 22
154.38790573205961
 32
0.0
 13
-134.82672952901109
 23
154.38790573205961
 33
0.0
210
0.0
220
0.0
230
1.0
  0
SOLID
  5
5AC
  8
0
  6
CONTINUOUS
 10
160.0196641445896
 20
155.29594797323051
 30
0.0
 11
147.3478522416649
 21
155.29594797323051
 31
0.0
 12
134.82672952901109
 22
154.38790573205961
 32
0.0
 13
134.82672952901109
 23
154.38790573205961
 33
0.0
210
0.0
220
0.0
230
-1.0
  0
SOLID
  5
5AD
  8
0
  6
CONTINUOUS
 10
-160.01966414459079
 20
154.38790573205961
 30
0.0
 11
-160.01966414459079
 21
154.35433609091999
 31
0.0
 12
-134.59040655063379
 22
154.35433609091999
 32
0.0
 13
-134.59040655063379
 23
154.35433609091999
 33
0.0
210
0.0
220
0.0
230
1.0
  0
SOLID
  5
5AE
  8
0
  6
CONTINUOUS
 10
160.01966414459079
 20
154.38790573205961
 30
0.0
 11
134.82672952901109
 21
154.38790573205961
 31
0.0
 12
134.59040655063379
 22
154.35433609091999
 32
0.0
 13
134.59040655063379
 23
154.35433609091999
 33
0.0
210
0.0
220
0.0
230
-1.0
  0
SOLID
  5
5AF
  8
0
  6
CONTINUOUS
 10
-160.01966414459079
 20
154.35433609091999
 30
0.0
 11
-147.46028420726981
 21
154.2997148814039
 31
0.0
 12
-134.2058851057445
 22
154.2997148814039
 32
0.0
 13
-134.2058851057445
 23
154.2997148814039
 33
0.0
210
0.0
220
0.0
230
1.0
  0
SOLID
  5
5B0
  8
0
  6
CONTINUOUS
 10
160.01966414459079
 20
154.35433609091999
 30
0.0
 11
134.59040655063379
 21
154.35433609091999
 31
0.0
 12
134.2058851057445
 22
154.2997148814039
 32
0.0
 13
134.2058851057445
 23
154.2997148814039
 33
0.0
210
0.0
220
0.0
230
-1.0
  0
SOLID
  5
5B1
  8
0
  6
CONTINUOUS
 10
325.82200110692332
 20
155.26129274069751
 30
0.0
 11
313.98950901572641
 21
154.26386912158159
 31
0.0
 12
353.2397179451026
 22
154.26386912158159
 32
0.0
 13
353.2397179451026
 23
154.26386912158159
 33
0.0
210
0.0
220
0.0
230
1.0
  0
SOLID
  5
5B2
  8
0
  6
CONTINUOUS
 10
-325.82200110692332
 20
155.26129274069751
 30
0.0
 11
-341.4072258539058
 21
155.26129274069751
 31
0.0
 12
-353.2397179451026
 22
154.26386912158159
 32
0.0
 13
-353.2397179451026
 23
154.26386912158159
 33
0.0
210
0.0
220
0.0
230
-1.0
  0
SOLID
  5
5B3
  8
0
  6
CONTINUOUS
 10
81.822001106923054
 20
155.26129274069751
 30
0.0
 11
69.989509015726284
 21
154.26386912158159
 31
0.0
 12
109.2397179451023
 22
154.26386912158159
 32
0.0
 13
109.2397179451023
 23
154.26386912158159
 33
0.0
  0
SOLID
  5
5B4
  8
0
  6
CONTINUOUS
 10
-81.822001106923054
 20
155.26129274069751
 30
0.0
 11
-97.407225853905459
 21
155.26129274069751
 31
0.0
 12
-109.2397179451023
 22
154.26386912158159
 32
0.0
 13
-109.2397179451023
 23
154.26386912158159
 33
0.0
210
0.0
220
0.0
230
-1.0
  0
SOLID
  5
5B5
  8
0
  6
CONTINUOUS
 10
341.33263604773168
 20
154.26386912158159
 30
0.0
 11
344.93343288665301
 21
153.961561288609
 31
0.0
 12
356.8260126489767
 22
153.961561288609
 32
0.0
 13
356.8260126489767
 23
153.961561288609
 33
0.0
210
0.0
220
0.0
230
1.0
  0
SOLID
  5
5B6
  8
0
  6
CONTINUOUS
 10
-341.33263604773168
 20
154.26386912158159
 30
0.0
 11
-353.2397179451026
 21
154.26386912158159
 31
0.0
 12
-356.8260126489767
 22
153.961561288609
 32
0.0
 13
-356.8260126489767
 23
153.961561288609
 33
0.0
210
0.0
220
0.0
230
-1.0
  0
SOLID
  5
5B7
  8
0
  6
CONTINUOUS
 10
313.98950901572641
 20
154.26386912158159
 30
0.0
 11
310.4032143118522
 21
153.961561288609
 31
0.0
 12
322.29579407417572
 22
153.961561288609
 32
0.0
 13
322.29579407417572
 23
153.961561288609
 33
0.0
210
0.0
220
0.0
230
1.0
  0
SOLID
  5
5B8
  8
0
  6
CONTINUOUS
 10
-313.98950901572641
 20
154.26386912158159
 30
0.0
 11
-325.8965909130963
 21
154.26386912158159
 31
0.0
 12
-322.29579407417572
 22
153.961561288609
 32
0.0
 13
-322.29579407417572
 23
153.961561288609
 33
0.0
210
0.0
220
0.0
230
-1.0
  0
SOLID
  5
5B9
  8
0
  6
CONTINUOUS
 10
97.332636047731668
 20
154.26386912158159
 30
0.0
 11
100.9334328866525
 21
153.961561288609
 31
0.0
 12
112.8260126489765
 22
153.961561288609
 32
0.0
 13
112.8260126489765
 23
153.961561288609
 33
0.0
210
0.0
220
0.0
230
1.0
  0
SOLID
  5
5BA
  8
0
  6
CONTINUOUS
 10
-97.332636047731668
 20
154.26386912158159
 30
0.0
 11
-109.2397179451023
 21
154.26386912158159
 31
0.0
 12
-112.8260126489765
 22
153.961561288609
 32
0.0
 13
-112.8260126489765
 23
153.961561288609
 33
0.0
210
0.0
220
0.0
230
-1.0
  0
SOLID
  5
5BB
  8
0
  6
CONTINUOUS
 10
69.989509015726284
 20
154.26386912158159
 30
0.0
 11
66.403214311852125
 21
153.961561288609
 31
0.0
 12
78.295794074175603
 22
153.961561288609
 32
0.0
 13
78.295794074175603
 23
153.961561288609
 33
0.0
210
0.0
220
0.0
230
1.0
  0
SOLID
  5
5BC
  8
0
  6
CONTINUOUS
 10
-69.989509015726284
 20
154.26386912158159
 30
0.0
 11
-81.896590913096304
 21
154.26386912158159
 31
0.0
 12
-78.295794074175603
 22
153.961561288609
 32
0.0
 13
-78.295794074175603
 23
153.961561288609
 33
0.0
210
0.0
220
0.0
230
-1.0
  0
SOLID
  5
5BD
  8
0
  6
CONTINUOUS
 10
-147.46028420726981
 20
154.2997148814039
 30
0.0
 11
-135.0490377365436
 21
153.40609932328121
 31
0.0
 12
-127.91502577419941
 22
153.40609932328121
 32
0.0
 13
-127.91502577419941
 23
153.40609932328121
 33
0.0
210
0.0
220
0.0
230
1.0
  0
SOLID
  5
5BE
  8
0
  6
CONTINUOUS
 10
147.46028420726981
 20
154.2997148814039
 30
0.0
 11
134.2058851057445
 21
154.2997148814039
 31
0.0
 12
127.91502577419941
 22
153.40609932328121
 32
0.0
 13
127.91502577419941
 23
153.40609932328121
 33
0.0
210
0.0
220
0.0
230
-1.0
  0
SOLID
  5
5BF
  8
0
  6
CONTINUOUS
 10
344.93343288665301
 20
153.961561288609
 30
0.0
 11
356.60516425688081
 21
152.9816515698958
 31
0.0
 12
362.5338053612133
 22
152.9816515698958
 32
0.0
 13
362.5338053612133
 23
152.9816515698958
 33
0.0
210
0.0
220
0.0
230
1.0
  0
SOLID
  5
5C0
  8
0
  6
CONTINUOUS
 10
-344.93343288665301
 20
153.961561288609
 30
0.0
 11
-356.8260126489767
 21
153.961561288609
 31
0.0
 12
-362.5338053612133
 22
152.9816515698958
 32
0.0
 13
-362.5338053612133
 23
152.9816515698958
 33
0.0
210
0.0
220
0.0
230
-1.0
  0
SOLID
  5
5C1
  8
0
  6
CONTINUOUS
 10
310.4032143118522
 20
153.961561288609
 30
0.0
 11
304.6954215996156
 21
152.9816515698958
 31
0.0
 12
310.62406270395007
 22
152.9816515698958
 32
0.0
 13
310.62406270395007
 23
152.9816515698958
 33
0.0
210
0.0
220
0.0
230
1.0
  0
SOLID
  5
5C2
  8
0
  6
CONTINUOUS
 10
-310.4032143118522
 20
153.961561288609
 30
0.0
 11
-322.29579407417572
 21
153.961561288609
 31
0.0
 12
-310.62406270395007
 22
152.9816515698958
 32
0.0
 13
-310.62406270395007
 23
152.9816515698958
 33
0.0
210
0.0
220
0.0
230
-1.0
  0
SOLID
  5
5C3
  8
0
  6
CONTINUOUS
 10
100.9334328866525
 20
153.961561288609
 30
0.0
 11
112.60516425687911
 21
152.9816515698958
 31
0.0
 12
118.5338053612131
 22
152.9816515698958
 32
0.0
 13
118.5338053612131
 23
152.9816515698958
 33
0.0
210
0.0
220
0.0
230
1.0
  0
SOLID
  5
5C4
  8
0
  6
CONTINUOUS
 10
-100.9334328866525
 20
153.961561288609
 30
0.0
 11
-112.8260126489765
 21
153.961561288609
 31
0.0
 12
-118.5338053612131
 22
152.9816515698958
 32
0.0
 13
-118.5338053612131
 23
152.9816515698958
 33
0.0
210
0.0
220
0.0
230
-1.0
  0
SOLID
  5
5C5
  8
0
  6
CONTINUOUS
 10
66.403214311852125
 20
153.961561288609
 30
0.0
 11
60.695421599615571
 21
152.9816515698958
 31
0.0
 12
66.624062703949846
 22
152.9816515698958
 32
0.0
 13
66.624062703949846
 23
152.9816515698958
 33
0.0
  0
SOLID
  5
5C6
  8
0
  6
CONTINUOUS
 10
-66.403214311852125
 20
153.961561288609
 30
0.0
 11
-78.295794074175603
 21
153.961561288609
 31
0.0
 12
-66.624062703949846
 22
152.9816515698958
 32
0.0
 13
-66.624062703949846
 23
152.9816515698958
 33
0.0
210
0.0
220
0.0
230
-1.0
  0
SOLID
  5
5C7
  8
0
  6
CONTINUOUS
 10
-135.0490377365436
 20
153.40609932328121
 30
0.0
 11
-129.5608080390806
 21
152.63068763613239
 31
0.0
 12
-122.45629600662799
 22
152.63068763613239
 32
0.0
 13
-122.45629600662799
 23
152.63068763613239
 33
0.0
210
0.0
220
0.0
230
1.0
  0
SOLID
  5
5C8
  8
0
  6
CONTINUOUS
 10
135.0490377365436
 20
153.40609932328121
 30
0.0
 11
127.91502577419941
 21
153.40609932328121
 31
0.0
 12
122.45629600662799
 22
152.63068763613239
 32
0.0
 13
122.45629600662799
 23
152.63068763613239
 33
0.0
210
0.0
220
0.0
230
-1.0
  0
SOLID
  5
5C9
  8
0
  6
CONTINUOUS
 10
-129.5608080390806
 20
152.63068763613239
 30
0.0
 11
-122.7859247324122
 21
151.673489416552
 31
0.0
 12
-117.9685947075366
 22
151.673489416552
 32
0.0
 13
-117.9685947075366
 23
151.673489416552
 33
0.0
210
0.0
220
0.0
230
1.0
  0
SOLID
  5
5CA
  8
0
  6
CONTINUOUS
 10
129.5608080390806
 20
152.63068763613239
 30
0.0
 11
122.45629600662799
 21
152.63068763613239
 31
0.0
 12
117.9685947075366
 22
151.673489416552
 32
0.0
 13
117.9685947075366
 23
151.673489416552
 33
0.0
210
0.0
220
0.0
230
-1.0
  0
SOLID
  5
5CB
  8
0
  6
CONTINUOUS
 10
356.60516425687871
 20
152.9816515698958
 30
0.0
 11
366.07832181505449
 21
151.36209838443219
 31
0.0
 12
371.96740285752861
 22
151.36209838443219
 32
0.0
 13
371.96740285752861
 23
151.36209838443219
 33
0.0
210
0.0
220
0.0
230
1.0
  0
SOLID
  5
5CC
  8
0
  6
CONTINUOUS
 10
-356.60516425687871
 20
152.9816515698958
 30
0.0
 11
-362.5338053612133
 21
152.9816515698958
 31
0.0
 12
-371.96740285752861
 22
151.36209838443219
 32
0.0
 13
-371.96740285752861
 23
151.36209838443219
 33
0.0
210
0.0
220
0.0
230
-1.0
  0
SOLID
  5
5CD
  8
0
  6
CONTINUOUS
 10
304.6954215996156
 20
152.9816515698958
 30
0.0
 11
295.2618241033004
 21
151.36209838443219
 31
0.0
 12
301.1509051457748
 22
151.36209838443219
 32
0.0
 13
301.1509051457748
 23
151.36209838443219
 33
0.0
210
0.0
220
0.0
230
1.0
  0
SOLID
  5
5CE
  8
0
  6
CONTINUOUS
 10
-304.6954215996156
 20
152.9816515698958
 30
0.0
 11
-310.62406270395007
 21
152.9816515698958
 31
0.0
 12
-301.1509051457748
 22
151.36209838443219
 32
0.0
 13
-301.1509051457748
 23
151.36209838443219
 33
0.0
210
0.0
220
0.0
230
-1.0
  0
SOLID
  5
5CF
  8
0
  6
CONTINUOUS
 10
112.6051642568778
 20
152.9816515698958
 30
0.0
 11
122.0783218150541
 21
151.36209838443219
 31
0.0
 12
127.9674028575284
 22
151.36209838443219
 32
0.0
 13
127.9674028575284
 23
151.36209838443219
 33
0.0
210
0.0
220
0.0
230
1.0
  0
SOLID
  5
5D0
  8
0
  6
CONTINUOUS
 10
-112.6051642568778
 20
152.9816515698958
 30
0.0
 11
-118.5338053612131
 21
152.9816515698958
 31
0.0
 12
-127.9674028575284
 22
151.36209838443219
 32
0.0
 13
-127.9674028575284
 23
151.36209838443219
 33
0.0
210
0.0
220
0.0
230
-1.0
  0
SOLID
  5
5D1
  8
0
  6
CONTINUOUS
 10
60.695421599615571
 20
152.9816515698958
 30
0.0
 11
51.261824103300398
 21
151.36209838443219
 31
0.0
 12
57.150905145774438
 22
151.36209838443219
 32
0.0
 13
57.150905145774438
 23
151.36209838443219
 33
0.0
210
0.0
220
0.0
230
1.0
  0
SOLID
  5
5D2
  8
0
  6
CONTINUOUS
 10
-60.695421599615571
 20
152.9816515698958
 30
0.0
 11
-66.624062703949846
 21
152.9816515698958
 31
0.0
 12
-57.150905145774438
 22
151.36209838443219
 32
0.0
 13
-57.150905145774438
 23
151.36209838443219
 33
0.0
210
0.0
220
0.0
230
-1.0
  0
SOLID
  5
5D3
  8
0
  6
CONTINUOUS
 10
366.07832181505449
 20
151.36209838443219
 30
0.0
 11
371.60516425687968
 21
150.4172164665242
 31
0.0
 12
375.5962452069997
 22
150.4172164665242
 32
0.0
 13
375.5962452069997
 23
150.4172164665242
 33
0.0
210
0.0
220
0.0
230
1.0
  0
SOLID
  5
5D4
  8
0
  6
CONTINUOUS
 10
-366.07832181505449
 20
151.36209838443219
 30
0.0
 11
-371.96740285752861
 21
151.36209838443219
 31
0.0
 12
-375.5962452069997
 22
150.4172164665242
 32
0.0
 13
-375.5962452069997
 23
150.4172164665242
 33
0.0
210
0.0
220
0.0
230
-1.0
  0
SOLID
  5
5D5
  8
0
  6
CONTINUOUS
 10
295.2618241033004
 20
151.36209838443219
 30
0.0
 11
291.63298175382931
 21
150.4172164665242
 31
0.0
 12
295.62406270395002
 22
150.4172164665242
 32
0.0
 13
295.62406270395002
 23
150.4172164665242
 33
0.0
  0
SOLID
  5
5D6
  8
0
  6
CONTINUOUS
 10
-295.2618241033004
 20
151.36209838443219
 30
0.0
 11
-301.1509051457748
 21
151.36209838443219
 31
0.0
 12
-295.62406270395002
 22
150.4172164665242
 32
0.0
 13
-295.62406270395002
 23
150.4172164665242
 33
0.0
210
0.0
220
0.0
230
-1.0
  0
SOLID
  5
5D7
  8
0
  6
CONTINUOUS
 10
122.0783218150541
 20
151.36209838443219
 30
0.0
 11
127.6051642568796
 21
150.4172164665242
 31
0.0
 12
131.5962452069995
 22
150.4172164665242
 32
0.0
 13
131.5962452069995
 23
150.4172164665242
 33
0.0
210
0.0
220
0.0
230
1.0
  0
SOLID
  5
5D8
  8
0
  6
CONTINUOUS
 10
-122.0783218150541
 20
151.36209838443219
 30
0.0
 11
-127.9674028575284
 21
151.36209838443219
 31
0.0
 12
-131.5962452069995
 22
150.4172164665242
 32
0.0
 13
-131.5962452069995
 23
150.4172164665242
 33
0.0
210
0.0
220
0.0
230
-1.0
  0
SOLID
  5
5D9
  8
0
  6
CONTINUOUS
 10
51.261824103300398
 20
151.36209838443219
 30
0.0
 11
47.63298175382922
 21
150.4172164665242
 31
0.0
 12
51.624062703949399
 22
150.4172164665242
 32
0.0
 13
51.624062703949399
 23
150.4172164665242
 33
0.0
210
0.0
220
0.0
230
1.0
  0
SOLID
  5
5DA
  8
0
  6
CONTINUOUS
 10
-51.261824103300398
 20
151.36209838443219
 30
0.0
 11
-57.150905145774438
 21
151.36209838443219
 31
0.0
 12
-51.624062703949399
 22
150.4172164665242
 32
0.0
 13
-51.624062703949399
 23
150.4172164665242
 33
0.0
210
0.0
220
0.0
230
-1.0
  0
SOLID
  5
5DB
  8
0
  6
CONTINUOUS
 10
-122.7859247324122
 20
151.673489416552
 30
0.0
 11
-115.0164662341811
 21
150.02429368544901
 31
0.0
 12
-110.2365516745155
 22
150.02429368544901
 32
0.0
 13
-110.2365516745155
 23
150.02429368544901
 33
0.0
210
0.0
220
0.0
230
1.0
  0
SOLID
  5
5DC
  8
0
  6
CONTINUOUS
 10
122.7859247324122
 20
151.673489416552
 30
0.0
 11
117.9685947075366
 21
151.673489416552
 31
0.0
 12
110.2365516745155
 22
150.02429368544901
 32
0.0
 13
110.2365516745155
 23
150.02429368544901
 33
0.0
210
0.0
220
0.0
230
-1.0
  0
SOLID
  5
5DD
  8
0
  6
CONTINUOUS
 10
-115.0164662341811
 20
150.02429368544901
 30
0.0
 11
-110.6709451948755
 21
149.10188516121619
 31
0.0
 12
-107.0149124170058
 22
149.10188516121619
 32
0.0
 13
-107.0149124170058
 23
149.10188516121619
 33
0.0
  0
SOLID
  5
5DE
  8
0
  6
CONTINUOUS
 10
115.0164662341811
 20
150.02429368544901
 30
0.0
 11
110.2365516745155
 21
150.02429368544901
 31
0.0
 12
107.0149124170058
 22
149.10188516121619
 32
0.0
 13
107.0149124170058
 23
149.10188516121619
 33
0.0
210
0.0
220
0.0
230
-1.0
  0
SOLID
  5
5DF
  8
0
  6
CONTINUOUS
 10
371.60516425687871
 20
150.4172164665242
 30
0.0
 11
382.99990415648688
 21
147.4629040281668
 31
0.0
 12
386.942355114169
 22
147.4629040281668
 32
0.0
 13
386.942355114169
 23
147.4629040281668
 33
0.0
210
0.0
220
0.0
230
1.0
  0
SOLID
  5
5E0
  8
0
  6
CONTINUOUS
 10
-371.60516425687871
 20
150.4172164665242
 30
0.0
 11
-375.5962452069997
 21
150.4172164665242
 31
0.0
 12
-386.942355114169
 22
147.4629040281668
 32
0.0
 13
-386.942355114169
 23
147.4629040281668
 33
0.0
210
0.0
220
0.0
230
-1.0
  0
SOLID
  5
5E1
  8
0
  6
CONTINUOUS
 10
291.63298175382931
 20
150.4172164665242
 30
0.0
 11
280.28687184666001
 21
147.4629040281668
 31
0.0
 12
284.22932280434247
 22
147.4629040281668
 32
0.0
 13
284.22932280434247
 23
147.4629040281668
 33
0.0
  0
SOLID
  5
5E2
  8
0
  6
CONTINUOUS
 10
-291.63298175382931
 20
150.4172164665242
 30
0.0
 11
-295.62406270395002
 21
150.4172164665242
 31
0.0
 12
-284.22932280434247
 22
147.4629040281668
 32
0.0
 13
-284.22932280434247
 23
147.4629040281668
 33
0.0
210
0.0
220
0.0
230
-1.0
  0
SOLID
  5
5E3
  8
0
  6
CONTINUOUS
 10
127.60516425687869
 20
150.4172164665242
 30
0.0
 11
138.99990415648671
 21
147.4629040281668
 31
0.0
 12
142.94235511416881
 22
147.4629040281668
 32
0.0
 13
142.94235511416881
 23
147.4629040281668
 33
0.0
210
0.0
220
0.0
230
1.0
  0
SOLID
  5
5E4
  8
0
  6
CONTINUOUS
 10
-127.60516425687869
 20
150.4172164665242
 30
0.0
 11
-131.5962452069995
 21
150.4172164665242
 31
0.0
 12
-142.94235511416881
 22
147.4629040281668
 32
0.0
 13
-142.94235511416881
 23
147.4629040281668
 33
0.0
210
0.0
220
0.0
230
-1.0
  0
SOLID
  5
5E5
  8
0
  6
CONTINUOUS
 10
47.63298175382922
 20
150.4172164665242
 30
0.0
 11
36.286871846659842
 21
147.4629040281668
 31
0.0
 12
40.229322804342317
 22
147.4629040281668
 32
0.0
 13
40.229322804342317
 23
147.4629040281668
 33
0.0
210
0.0
220
0.0
230
1.0
  0
SOLID
  5
5E6
  8
0
  6
CONTINUOUS
 10
-47.63298175382922
 20
150.4172164665242
 30
0.0
 11
-51.624062703949512
 21
150.4172164665242
 31
0.0
 12
-40.229322804342317
 22
147.4629040281668
 32
0.0
 13
-40.229322804342317
 23
147.4629040281668
 33
0.0
210
0.0
220
0.0
230
-1.0
  0
SOLID
  5
5E7
  8
0
  6
CONTINUOUS
 10
382.99990415648688
 20
147.4629040281668
 30
0.0
 11
386.44164733139212
 21
146.570563811467
 31
0.0
 12
389.48407879917528
 22
146.570563811467
 32
0.0
 13
389.48407879917528
 23
146.570563811467
 33
0.0
  0
SOLID
  5
5E8
  8
0
  6
CONTINUOUS
 10
-382.99990415648688
 20
147.4629040281668
 30
0.0
 11
-386.942355114169
 21
147.4629040281668
 31
0.0
 12
-389.48407879917528
 22
146.570563811467
 32
0.0
 13
-389.48407879917528
 23
146.570563811467
 33
0.0
210
0.0
220
0.0
230
-1.0
  0
SOLID
  5
5E9
  8
0
  6
CONTINUOUS
 10
280.28687184666001
 20
147.4629040281668
 30
0.0
 11
277.74514816165362
 21
146.570563811467
 31
0.0
 12
280.78757962943752
 22
146.570563811467
 32
0.0
 13
280.78757962943752
 23
146.570563811467
 33
0.0
210
0.0
220
0.0
230
1.0
  0
SOLID
  5
5EA
  8
0
  6
CONTINUOUS
 10
-280.28687184666001
 20
147.4629040281668
 30
0.0
 11
-284.22932280434247
 21
147.4629040281668
 31
0.0
 12
-280.78757962943752
 22
146.570563811467
 32
0.0
 13
-280.78757962943752
 23
146.570563811467
 33
0.0
210
0.0
220
0.0
230
-1.0
  0
SOLID
  5
5EB
  8
0
  6
CONTINUOUS
 10
138.99990415648671
 20
147.4629040281668
 30
0.0
 11
142.44164733139189
 21
146.570563811467
 31
0.0
 12
145.48407879917519
 22
146.570563811467
 32
0.0
 13
145.48407879917519
 23
146.570563811467
 33
0.0
210
0.0
220
0.0
230
1.0
  0
SOLID
  5
5EC
  8
0
  6
CONTINUOUS
 10
-138.99990415648671
 20
147.4629040281668
 30
0.0
 11
-142.94235511416881
 21
147.4629040281668
 31
0.0
 12
-145.48407879917519
 22
146.570563811467
 32
0.0
 13
-145.48407879917519
 23
146.570563811467
 33
0.0
210
0.0
220
0.0
230
-1.0
  0
SOLID
  5
5ED
  8
0
  6
CONTINUOUS
 10
36.286871846659842
 20
147.4629040281668
 30
0.0
 11
33.745148161653461
 21
146.570563811467
 31
0.0
 12
36.787579629437353
 22
146.570563811467
 32
0.0
 13
36.787579629437353
 23
146.570563811467
 33
0.0
210
0.0
220
0.0
230
1.0
  0
SOLID
  5
5EE
  8
0
  6
CONTINUOUS
 10
-36.286871846659842
 20
147.4629040281668
 30
0.0
 11
-40.229322804342317
 21
147.4629040281668
 31
0.0
 12
-36.787579629437353
 22
146.570563811467
 32
0.0
 13
-36.787579629437353
 23
146.570563811467
 33
0.0
210
0.0
220
0.0
230
-1.0
  0
SOLID
  5
5EF
  8
0
  6
CONTINUOUS
 10
-110.6709451948755
 20
149.10188516121619
 30
0.0
 11
-101.7827837178741
 21
146.56872388000909
 31
0.0
 12
-98.167496532673681
 22
146.56872388000909
 32
0.0
 13
-98.167496532673681
 23
146.56872388000909
 33
0.0
210
0.0
220
0.0
230
1.0
  0
SOLID
  5
5F0
  8
0
  6
CONTINUOUS
 10
110.6709451948755
 20
149.10188516121619
 30
0.0
 11
107.0149124170058
 21
149.10188516121619
 31
0.0
 12
98.167496532673681
 22
146.56872388000909
 32
0.0
 13
98.167496532673681
 23
146.56872388000909
 33
0.0
210
0.0
220
0.0
230
-1.0
  0
SOLID
  5
5F1
  8
0
  6
CONTINUOUS
 10
-101.7827837178741
 20
146.56872388000909
 30
0.0
 11
-98.704099123933702
 21
145.69128655727391
 31
0.0
 12
-95.738173191083135
 22
145.69128655727391
 32
0.0
 13
-95.738173191083135
 23
145.69128655727391
 33
0.0
210
0.0
220
0.0
230
1.0
  0
SOLID
  5
5F2
  8
0
  6
CONTINUOUS
 10
101.7827837178741
 20
146.56872388000909
 30
0.0
 11
98.167496532673681
 21
146.56872388000909
 31
0.0
 12
95.738173191083135
 22
145.69128655727391
 32
0.0
 13
95.738173191083135
 23
145.69128655727391
 33
0.0
210
0.0
220
0.0
230
-1.0
  0
SOLID
  5
5F3
  8
0
  6
CONTINUOUS
 10
386.44164733139138
 20
146.570563811467
 30
0.0
 11
398.76217447616938
 21
142.26397821981291
 31
0.0
 12
401.75086941889782
 22
142.26397821981291
 32
0.0
 13
401.75086941889782
 23
142.26397821981291
 33
0.0
210
0.0
220
0.0
230
1.0
  0
SOLID
  5
5F4
  8
0
  6
CONTINUOUS
 10
-386.44164733139138
 20
146.570563811467
 30
0.0
 11
-389.48407879917528
 21
146.570563811467
 31
0.0
 12
-401.75086941889782
 22
142.26397821981291
 32
0.0
 13
-401.75086941889782
 23
142.26397821981291
 33
0.0
210
0.0
220
0.0
230
-1.0
  0
SOLID
  5
5F5
  8
0
  6
CONTINUOUS
 10
277.74514816165362
 20
146.570563811467
 30
0.0
 11
265.47835754193108
 21
142.26397821981291
 31
0.0
 12
268.46705248465992
 22
142.26397821981291
 32
0.0
 13
268.46705248465992
 23
142.26397821981291
 33
0.0
210
0.0
220
0.0
230
1.0
  0
SOLID
  5
5F6
  8
0
  6
CONTINUOUS
 10
-277.74514816165362
 20
146.570563811467
 30
0.0
 11
-280.78757962943752
 21
146.570563811467
 31
0.0
 12
-268.46705248465992
 22
142.26397821981291
 32
0.0
 13
-268.46705248465992
 23
142.26397821981291
 33
0.0
210
0.0
220
0.0
230
-1.0
  0
SOLID
  5
5F7
  8
0
  6
CONTINUOUS
 10
142.44164733139121
 20
146.570563811467
 30
0.0
 11
154.76217447616901
 21
142.26397821981291
 31
0.0
 12
157.75086941889779
 22
142.26397821981291
 32
0.0
 13
157.75086941889779
 23
142.26397821981291
 33
0.0
210
0.0
220
0.0
230
1.0
  0
SOLID
  5
5F8
  8
0
  6
CONTINUOUS
 10
-142.44164733139121
 20
146.570563811467
 30
0.0
 11
-145.48407879917519
 21
146.570563811467
 31
0.0
 12
-157.75086941889779
 22
142.26397821981291
 32
0.0
 13
-157.75086941889779
 23
142.26397821981291
 33
0.0
210
0.0
220
0.0
230
-1.0
  0
SOLID
  5
5F9
  8
0
  6
CONTINUOUS
 10
33.745148161653461
 20
146.570563811467
 30
0.0
 11
21.478357541930901
 21
142.26397821981291
 31
0.0
 12
24.467052484659408
 22
142.26397821981291
 32
0.0
 13
24.467052484659408
 23
142.26397821981291
 33
0.0
210
0.0
220
0.0
230
1.0
  0
SOLID
  5
5FA
  8
0
  6
CONTINUOUS
 10
-33.745148161653461
 20
146.570563811467
 30
0.0
 11
-36.787579629437353
 21
146.570563811467
 31
0.0
 12
-24.467052484659408
 22
142.26397821981291
 32
0.0
 13
-24.467052484659408
 23
142.26397821981291
 33
0.0
210
0.0
220
0.0
230
-1.0
  0
SOLID
  5
5FB
  8
0
  6
CONTINUOUS
 10
-98.704099123933702
 20
145.69128655727391
 30
0.0
 11
-89.172275088260207
 21
142.26397821981291
 31
0.0
 12
-86.249130581102463
 22
142.26397821981291
 32
0.0
 13
-86.249130581102463
 23
142.26397821981291
 33
0.0
210
0.0
220
0.0
230
1.0
  0
SOLID
  5
5FC
  8
0
  6
CONTINUOUS
 10
98.704099123933702
 20
145.69128655727391
 30
0.0
 11
95.738173191083135
 21
145.69128655727391
 31
0.0
 12
86.249130581102463
 22
142.26397821981291
 32
0.0
 13
86.249130581102463
 23
142.26397821981291
 33
0.0
210
0.0
220
0.0
230
-1.0
  0
SOLID
  5
5FD
  8
0
  6
CONTINUOUS
 10
398.76217447616938
 20
142.26397821981291
 30
0.0
 11
401.11461348041661
 21
141.44169360472401
 31
0.0
 12
402.3567633458054
 22
141.44169360472401
 32
0.0
 13
402.3567633458054
 23
141.44169360472401
 33
0.0
210
0.0
220
0.0
230
1.0
  0
SOLID
  5
5FE
  8
0
  6
CONTINUOUS
 10
-398.76217447616938
 20
142.26397821981291
 30
0.0
 11
-401.75086941889782
 21
142.26397821981291
 31
0.0
 12
-402.3567633458054
 22
141.44169360472401
 32
0.0
 13
-402.3567633458054
 23
141.44169360472401
 33
0.0
210
0.0
220
0.0
230
-1.0
  0
SOLID
  5
5FF
  8
0
  6
CONTINUOUS
 10
265.47835754193108
 20
142.26397821981291
 30
0.0
 11
264.87246361502361
 21
141.44169360472401
 31
0.0
 12
266.11461348041291
 22
141.44169360472401
 32
0.0
 13
266.11461348041291
 23
141.44169360472401
 33
0.0
210
0.0
220
0.0
230
1.0
  0
SOLID
  5
600
  8
0
  6
CONTINUOUS
 10
-265.47835754193108
 20
142.26397821981291
 30
0.0
 11
-268.46705248465992
 21
142.26397821981291
 31
0.0
 12
-266.11461348041291
 22
141.44169360472401
 32
0.0
 13
-266.11461348041291
 23
141.44169360472401
 33
0.0
210
0.0
220
0.0
230
-1.0
  0
SOLID
  5
601
  8
0
  6
CONTINUOUS
 10
154.76217447616901
 20
142.26397821981291
 30
0.0
 11
157.1146134804161
 21
141.44169360472401
 31
0.0
 12
158.35676334580529
 22
141.44169360472401
 32
0.0
 13
158.35676334580529
 23
141.44169360472401
 33
0.0
210
0.0
220
0.0
230
1.0
  0
SOLID
  5
602
  8
0
  6
CONTINUOUS
 10
-154.76217447616901
 20
142.26397821981291
 30
0.0
 11
-157.75086941889779
 21
142.26397821981291
 31
0.0
 12
-158.35676334580529
 22
141.44169360472401
 32
0.0
 13
-158.35676334580529
 23
141.44169360472401
 33
0.0
210
0.0
220
0.0
230
-1.0
  0
SOLID
  5
603
  8
0
  6
CONTINUOUS
 10
21.478357541930901
 20
142.26397821981291
 30
0.0
 11
20.872463615023388
 21
141.44169360472401
 31
0.0
 12
22.114613480412281
 22
141.44169360472401
 32
0.0
 13
22.114613480412281
 23
141.44169360472401
 33
0.0
210
0.0
220
0.0
230
1.0
  0
SOLID
  5
604
  8
0
  6
CONTINUOUS
 10
-21.478357541930901
 20
142.26397821981291
 30
0.0
 11
-24.467052484659408
 21
142.26397821981291
 31
0.0
 12
-22.114613480412281
 22
141.44169360472401
 32
0.0
 13
-22.114613480412281
 23
141.44169360472401
 33
0.0
210
0.0
220
0.0
230
-1.0
  0
SOLID
  5
605
  8
0
  6
CONTINUOUS
 10
-89.172275088260207
 20
142.26397821981291
 30
0.0
 11
-86.885386519583875
 21
141.44169360472401
 31
0.0
 12
-85.64323665419488
 22
141.44169360472401
 32
0.0
 13
-85.64323665419488
 23
141.44169360472401
 33
0.0
  0
SOLID
  5
606
  8
0
  6
CONTINUOUS
 10
89.172275088260207
 20
142.26397821981291
 30
0.0
 11
86.249130581102463
 21
142.26397821981291
 31
0.0
 12
85.64323665419488
 22
141.44169360472401
 32
0.0
 13
85.64323665419488
 23
141.44169360472401
 33
0.0
210
0.0
220
0.0
230
-1.0
  0
SOLID
  5
607
  8
0
  6
CONTINUOUS
 10
502.96049154856922
 20
179.1783236382357
 30
0.0
 11
502.96049154856922
 21
135.53654247744851
 31
0.0
 12
503.96049154856911
 22
135.53654247744851
 32
0.0
 13
503.96049154856911
 23
135.53654247744851
 33
0.0
210
0.0
220
0.0
230
1.0
  0
SOLID
  5
608
  8
0
  6
CONTINUOUS
 10
-502.96049154856922
 20
179.1783236382357
 30
0.0
 11
-503.96049154856911
 21
179.1783236382357
 31
0.0
 12
-503.96049154856911
 22
135.53654247744851
 32
0.0
 13
-503.96049154856911
 23
135.53654247744851
 33
0.0
210
0.0
220
0.0
230
-1.0
  0
SOLID
  5
609
  8
0
  6
CONTINUOUS
 10
502.96049154856922
 20
135.53654247744851
 30
0.0
 11
502.8793992379521
 21
134.79840173927261
 31
0.0
 12
503.8793992379521
 22
134.79840173927261
 32
0.0
 13
503.8793992379521
 23
134.79840173927261
 33
0.0
210
0.0
220
0.0
230
1.0
  0
SOLID
  5
60A
  8
0
  6
CONTINUOUS
 10
-502.96049154856922
 20
135.53654247744851
 30
0.0
 11
-503.96049154856911
 21
135.53654247744851
 31
0.0
 12
-503.8793992379521
 22
134.79840173927261
 32
0.0
 13
-503.8793992379521
 23
134.79840173927261
 33
0.0
210
0.0
220
0.0
230
-1.0
  0
SOLID
  5
60B
  8
0
  6
CONTINUOUS
 10
502.8793992379521
 20
134.79840173927261
 30
0.0
 11
502.80545780201197
 21
134.58130152216211
 31
0.0
 12
503.85554855835892
 22
134.58130152216211
 32
0.0
 13
503.85554855835892
 23
134.58130152216211
 33
0.0
210
0.0
220
0.0
230
1.0
  0
SOLID
  5
60C
  8
0
  6
CONTINUOUS
 10
-502.8793992379521
 20
134.79840173927261
 30
0.0
 11
-503.8793992379521
 21
134.79840173927261
 31
0.0
 12
-503.85554855835892
 22
134.58130152216211
 32
0.0
 13
-503.85554855835892
 23
134.58130152216211
 33
0.0
210
0.0
220
0.0
230
-1.0
  0
SOLID
  5
60D
  8
0
  6
CONTINUOUS
 10
502.80545780201197
 20
134.58130152216211
 30
0.0
 11
502.63999051953698
 21
134.0954713175787
 31
0.0
 12
503.69008127588393
 22
134.0954713175787
 32
0.0
 13
503.69008127588393
 23
134.0954713175787
 33
0.0
  0
SOLID
  5
60E
  8
0
  6
CONTINUOUS
 10
-502.80545780201197
 20
134.58130152216211
 30
0.0
 11
-503.85554855835892
 21
134.58130152216211
 31
0.0
 12
-503.69008127588393
 22
134.0954713175787
 32
0.0
 13
-503.69008127588393
 23
134.0954713175787
 33
0.0
210
0.0
220
0.0
230
-1.0
  0
SOLID
  5
60F
  8
0
  6
CONTINUOUS
 10
502.63999051953698
 20
134.0954713175787
 30
0.0
 11
502.38181331911119
 21
133.67162685879339
 31
0.0
 12
503.54572551099812
 22
133.67162685879339
 32
0.0
 13
503.54572551099812
 23
133.67162685879339
 33
0.0
  0
SOLID
  5
610
  8
0
  6
CONTINUOUS
 10
-502.63999051953698
 20
134.0954713175787
 30
0.0
 11
-503.69008127588393
 21
134.0954713175787
 31
0.0
 12
-503.54572551099812
 22
133.67162685879339
 32
0.0
 13
-503.54572551099812
 23
133.67162685879339
 33
0.0
210
0.0
220
0.0
230
-1.0
  0
SOLID
  5
611
  8
0
  6
CONTINUOUS
 10
502.38181331911119
 20
133.67162685879339
 30
0.0
 11
502.25368551459309
 21
133.46128194889511
 31
0.0
 12
503.41759770648002
 22
133.46128194889511
 32
0.0
 13
503.41759770648002
 23
133.46128194889511
 33
0.0
210
0.0
220
0.0
230
1.0
  0
SOLID
  5
612
  8
0
  6
CONTINUOUS
 10
-502.38181331911119
 20
133.67162685879339
 30
0.0
 11
-503.54572551099812
 21
133.67162685879339
 31
0.0
 12
-503.41759770648002
 22
133.46128194889511
 32
0.0
 13
-503.41759770648002
 23
133.46128194889511
 33
0.0
210
0.0
220
0.0
230
-1.0
  0
SOLID
  5
613
  8
0
  6
CONTINUOUS
 10
502.25368551459309
 20
133.46128194889511
 30
0.0
 11
501.73891149691713
 21
132.9260853280895
 31
0.0
 12
503.09159234679458
 22
132.9260853280895
 32
0.0
 13
503.09159234679458
 23
132.9260853280895
 33
0.0
210
0.0
220
0.0
230
1.0
  0
SOLID
  5
614
  8
0
  6
CONTINUOUS
 10
-502.25368551459309
 20
133.46128194889511
 30
0.0
 11
-503.41759770648002
 21
133.46128194889511
 31
0.0
 12
-503.09159234679458
 22
132.9260853280895
 32
0.0
 13
-503.09159234679458
 23
132.9260853280895
 33
0.0
210
0.0
220
0.0
230
-1.0
  0
SOLID
  5
615
  8
0
  6
CONTINUOUS
 10
501.73891149691713
 20
132.9260853280895
 30
0.0
 11
501.62566043104169
 21
132.85091120520289
 31
0.0
 12
503.04580138695297
 22
132.85091120520289
 32
0.0
 13
503.04580138695297
 23
132.85091120520289
 33
0.0
210
0.0
220
0.0
230
1.0
  0
SOLID
  5
616
  8
0
  6
CONTINUOUS
 10
-501.73891149691713
 20
132.9260853280895
 30
0.0
 11
-503.09159234679458
 21
132.9260853280895
 31
0.0
 12
-503.04580138695297
 22
132.85091120520289
 32
0.0
 13
-503.04580138695297
 23
132.85091120520289
 33
0.0
210
0.0
220
0.0
230
-1.0
  0
SOLID
  5
617
  8
0
  6
CONTINUOUS
 10
401.11461348041541
 20
141.44169360472401
 30
0.0
 11
407.47275784663452
 21
132.812783393427
 31
0.0
 12
408.71490771202463
 22
132.812783393427
 32
0.0
 13
408.71490771202463
 23
132.812783393427
 33
0.0
210
0.0
220
0.0
230
1.0
  0
SOLID
  5
618
  8
0
  6
CONTINUOUS
 10
-401.11461348041541
 20
141.44169360472401
 30
0.0
 11
-402.3567633458054
 21
141.44169360472401
 31
0.0
 12
-408.71490771202463
 22
132.812783393427
 32
0.0
 13
-408.71490771202463
 23
132.812783393427
 33
0.0
210
0.0
220
0.0
230
-1.0
  0
SOLID
  5
619
  8
0
  6
CONTINUOUS
 10
264.87246361502361
 20
141.44169360472401
 30
0.0
 11
258.51431924880569
 21
132.812783393427
 31
0.0
 12
259.75646911419472
 22
132.812783393427
 32
0.0
 13
259.75646911419472
 23
132.812783393427
 33
0.0
210
0.0
220
0.0
230
1.0
  0
SOLID
  5
61A
  8
0
  6
CONTINUOUS
 10
-264.87246361502361
 20
141.44169360472401
 30
0.0
 11
-266.11461348041291
 21
141.44169360472401
 31
0.0
 12
-259.75646911419472
 22
132.812783393427
 32
0.0
 13
-259.75646911419472
 23
132.812783393427
 33
0.0
210
0.0
220
0.0
230
-1.0
  0
SOLID
  5
61B
  8
0
  6
CONTINUOUS
 10
157.1146134804153
 20
141.44169360472401
 30
0.0
 11
163.47275784663421
 21
132.812783393427
 31
0.0
 12
164.7149077120242
 22
132.812783393427
 32
0.0
 13
164.7149077120242
 23
132.812783393427
 33
0.0
210
0.0
220
0.0
230
1.0
  0
SOLID
  5
61C
  8
0
  6
CONTINUOUS
 10
-157.1146134804153
 20
141.44169360472401
 30
0.0
 11
-158.35676334580529
 21
141.44169360472401
 31
0.0
 12
-164.7149077120242
 22
132.812783393427
 32
0.0
 13
-164.7149077120242
 23
132.812783393427
 33
0.0
210
0.0
220
0.0
230
-1.0
  0
SOLID
  5
61D
  8
0
  6
CONTINUOUS
 10
20.872463615023388
 20
141.44169360472401
 30
0.0
 11
14.51431924880532
 21
132.812783393427
 31
0.0
 12
15.75646911419452
 22
132.812783393427
 32
0.0
 13
15.75646911419452
 23
132.812783393427
 33
0.0
210
0.0
220
0.0
230
1.0
  0
SOLID
  5
61E
  8
0
  6
CONTINUOUS
 10
-20.872463615023388
 20
141.44169360472401
 30
0.0
 11
-22.114613480412579
 21
141.44169360472401
 31
0.0
 12
-15.75646911419452
 22
132.812783393427
 32
0.0
 13
-15.75646911419452
 23
132.812783393427
 33
0.0
210
0.0
220
0.0
230
-1.0
  0
SOLID
  5
61F
  8
0
  6
CONTINUOUS
 10
-86.885386519584983
 20
141.44169360472401
 30
0.0
 11
-80.527242153366146
 21
132.812783393427
 31
0.0
 12
-79.285092287976056
 22
132.812783393427
 32
0.0
 13
-79.285092287976056
 23
132.812783393427
 33
0.0
210
0.0
220
0.0
230
1.0
  0
SOLID
  5
620
  8
0
  6
CONTINUOUS
 10
86.885386519584983
 20
141.44169360472401
 30
0.0
 11
85.64323665419488
 21
141.44169360472401
 31
0.0
 12
79.285092287976056
 22
132.812783393427
 32
0.0
 13
79.285092287976056
 23
132.812783393427
 33
0.0
210
0.0
220
0.0
230
-1.0
  0
SOLID
  5
621
  8
0
  6
CONTINUOUS
 10
501.62566043104169
 20
132.85091120520289
 30
0.0
 11
501.1202238868259
 21
132.5154110614065
 31
0.0
 12
502.72310361525751
 22
132.5154110614065
 32
0.0
 13
502.72310361525751
 23
132.5154110614065
 33
0.0
  0
SOLID
  5
622
  8
0
  6
CONTINUOUS
 10
-501.62566043104169
 20
132.85091120520289
 30
0.0
 11
-503.04580138695297
 21
132.85091120520289
 31
0.0
 12
-502.72310361525751
 22
132.5154110614065
 32
0.0
 13
-502.72310361525751
 23
132.5154110614065
 33
0.0
210
0.0
220
0.0
230
-1.0
  0
SOLID
  5
623
  8
0
  6
CONTINUOUS
 10
501.1202238868259
 20
132.5154110614065
 30
0.0
 11
500.42713492423371
 21
132.24884886954999
 31
0.0
 12
502.46671318764987
 22
132.24884886954999
 32
0.0
 13
502.46671318764987
 23
132.24884886954999
 33
0.0
210
0.0
220
0.0
230
1.0
  0
SOLID
  5
624
  8
0
  6
CONTINUOUS
 10
-501.1202238868259
 20
132.5154110614065
 30
0.0
 11
-502.72310361525751
 21
132.5154110614065
 31
0.0
 12
-502.46671318764987
 22
132.24884886954999
 32
0.0
 13
-502.46671318764987
 23
132.24884886954999
 33
0.0
210
0.0
220
0.0
230
-1.0
  0
SOLID
  5
625
  8
0
  6
CONTINUOUS
 10
500.42713492423371
 20
132.24884886954999
 30
0.0
 11
500.0091679320725
 21
132.1583038135721
 31
0.0
 12
502.37962324643121
 22
132.1583038135721
 32
0.0
 13
502.37962324643121
 23
132.1583038135721
 33
0.0
210
0.0
220
0.0
230
1.0
  0
SOLID
  5
626
  8
0
  6
CONTINUOUS
 10
-500.42713492423371
 20
132.24884886954999
 30
0.0
 11
-502.46671318764987
 21
132.24884886954999
 31
0.0
 12
-502.37962324643121
 22
132.1583038135721
 32
0.0
 13
-502.37962324643121
 23
132.1583038135721
 33
0.0
210
0.0
220
0.0
230
-1.0
  0
SOLID
  5
627
  8
0
  6
CONTINUOUS
 10
407.47275784663452
 20
132.812783393427
 30
0.0
 11
408.1146134804149
 21
131.941693604725
 31
0.0
 12
412.50981138134023
 22
131.941693604725
 32
0.0
 13
412.50981138134023
 23
131.941693604725
 33
0.0
210
0.0
220
0.0
230
1.0
  0
SOLID
  5
628
  8
0
  6
CONTINUOUS
 10
-407.47275784663452
 20
132.812783393427
 30
0.0
 11
-408.71490771202463
 21
132.812783393427
 31
0.0
 12
-412.50981138134023
 22
131.941693604725
 32
0.0
 13
-412.50981138134023
 23
131.941693604725
 33
0.0
210
0.0
220
0.0
230
-1.0
  0
SOLID
  5
629
  8
0
  6
CONTINUOUS
 10
258.51431924880387
 20
132.812783393427
 30
0.0
 11
254.7009722928193
 21
131.941693604725
 31
0.0
 12
259.11461348041439
 22
131.941693604725
 32
0.0
 13
259.11461348041439
 23
131.941693604725
 33
0.0
210
0.0
220
0.0
230
1.0
  0
SOLID
  5
62A
  8
0
  6
CONTINUOUS
 10
-258.51431924880387
 20
132.812783393427
 30
0.0
 11
-259.75646911419472
 21
132.812783393427
 31
0.0
 12
-259.11461348041439
 22
131.941693604725
 32
0.0
 13
-259.11461348041439
 23
131.941693604725
 33
0.0
210
0.0
220
0.0
230
-1.0
  0
SOLID
  5
62B
  8
0
  6
CONTINUOUS
 10
163.47275784663421
 20
132.812783393427
 30
0.0
 11
164.1146134804147
 21
131.941693604725
 31
0.0
 12
168.52825466800979
 22
131.941693604725
 32
0.0
 13
168.52825466800979
 23
131.941693604725
 33
0.0
210
0.0
220
0.0
230
1.0
  0
SOLID
  5
62C
  8
0
  6
CONTINUOUS
 10
-163.47275784663421
 20
132.812783393427
 30
0.0
 11
-164.71490771202531
 21
132.812783393427
 31
0.0
 12
-168.52825466800979
 22
131.941693604725
 32
0.0
 13
-168.52825466800979
 23
131.941693604725
 33
0.0
210
0.0
220
0.0
230
-1.0
  0
SOLID
  5
62D
  8
0
  6
CONTINUOUS
 10
14.514319248800151
 20
132.812783393427
 30
0.0
 11
10.700972292815541
 21
131.941693604725
 31
0.0
 12
15.11461348041416
 22
131.941693604725
 32
0.0
 13
15.11461348041416
 23
131.941693604725
 33
0.0
210
0.0
220
0.0
230
1.0
  0
SOLID
  5
62E
  8
0
  6
CONTINUOUS
 10
-14.514319248800151
 20
132.812783393427
 30
0.0
 11
-15.75646911419452
 21
132.812783393427
 31
0.0
 12
-15.11461348041416
 22
131.941693604725
 32
0.0
 13
-15.11461348041416
 23
131.941693604725
 33
0.0
210
0.0
220
0.0
230
-1.0
  0
SOLID
  5
62F
  8
0
  6
CONTINUOUS
 10
-80.527242153366146
 20
132.812783393427
 30
0.0
 11
-79.885386519585722
 21
131.941693604725
 31
0.0
 12
-75.471745331987023
 22
131.941693604725
 32
0.0
 13
-75.471745331987023
 23
131.941693604725
 33
0.0
  0
SOLID
  5
630
  8
0
  6
CONTINUOUS
 10
80.527242153366146
 20
132.812783393427
 30
0.0
 11
79.285092287971807
 21
132.812783393427
 31
0.0
 12
75.471745331987023
 22
131.941693604725
 32
0.0
 13
75.471745331987023
 23
131.941693604725
 33
0.0
210
0.0
220
0.0
230
-1.0
  0
SOLID
  5
631
  8
0
  6
CONTINUOUS
 10
500.0091679320725
 20
132.1583038135721
 30
0.0
 11
497.55588016065531
 21
131.6268429978648
 31
0.0
 12
501.57896869219547
 22
131.6268429978648
 32
0.0
 13
501.57896869219547
 23
131.6268429978648
 33
0.0
210
0.0
220
0.0
230
1.0
  0
SOLID
  5
632
  8
0
  6
CONTINUOUS
 10
-500.0091679320725
 20
132.1583038135721
 30
0.0
 11
-502.37962324643121
 21
132.1583038135721
 31
0.0
 12
-501.57896869219547
 22
131.6268429978648
 32
0.0
 13
-501.57896869219547
 23
131.6268429978648
 33
0.0
210
0.0
220
0.0
230
-1.0
  0
SOLID
  5
633
  8
0
  6
CONTINUOUS
 10
497.55588016065531
 20
131.6268429978648
 30
0.0
 11
495.96348974650448
 21
131.28188016134419
 31
0.0
 12
500.68203003472189
 22
131.28188016134419
 32
0.0
 13
500.68203003472189
 23
131.28188016134419
 33
0.0
  0
SOLID
  5
634
  8
0
  6
CONTINUOUS
 10
-497.55588016065531
 20
131.6268429978648
 30
0.0
 11
-501.57896869219547
 21
131.6268429978648
 31
0.0
 12
-500.68203003472189
 22
131.28188016134419
 32
0.0
 13
-500.68203003472189
 23
131.28188016134419
 33
0.0
210
0.0
220
0.0
230
-1.0
  0
SOLID
  5
635
  8
0
  6
CONTINUOUS
 10
408.1146134804149
 20
131.941693604725
 30
0.0
 11
419.35295456354351
 21
129.34083700476981
 31
0.0
 12
423.84044615923187
 22
129.34083700476981
 32
0.0
 13
423.84044615923187
 23
129.34083700476981
 33
0.0
210
0.0
220
0.0
230
1.0
  0
SOLID
  5
636
  8
0
  6
CONTINUOUS
 10
-408.1146134804149
 20
131.941693604725
 30
0.0
 11
-412.50981138134023
 21
131.941693604725
 31
0.0
 12
-423.84044615923187
 22
129.34083700476981
 32
0.0
 13
-423.84044615923187
 23
129.34083700476981
 33
0.0
210
0.0
220
0.0
230
-1.0
  0
SOLID
  5
637
  8
0
  6
CONTINUOUS
 10
254.7009722928193
 20
131.941693604725
 30
0.0
 11
243.0300649690486
 21
129.2756869937426
 31
0.0
 12
247.53026904949189
 22
129.2756869937426
 32
0.0
 13
247.53026904949189
 23
129.2756869937426
 33
0.0
210
0.0
220
0.0
230
1.0
  0
SOLID
  5
638
  8
0
  6
CONTINUOUS
 10
-254.7009722928193
 20
131.941693604725
 30
0.0
 11
-259.11461348041331
 21
131.941693604725
 31
0.0
 12
-247.53026904949189
 22
129.2756869937426
 32
0.0
 13
-247.53026904949189
 23
129.2756869937426
 33
0.0
210
0.0
220
0.0
230
-1.0
  0
SOLID
  5
639
  8
0
  6
CONTINUOUS
 10
164.1146134804157
 20
131.941693604725
 30
0.0
 11
175.69895791133709
 21
129.2756869937426
 31
0.0
 12
180.1991619917805
 22
129.2756869937426
 32
0.0
 13
180.1991619917805
 23
129.2756869937426
 33
0.0
210
0.0
220
0.0
230
1.0
  0
SOLID
  5
63A
  8
0
  6
CONTINUOUS
 10
-164.1146134804157
 20
131.941693604725
 30
0.0
 11
-168.52825466800979
 21
131.941693604725
 31
0.0
 12
-180.1991619917805
 22
129.2756869937426
 32
0.0
 13
-180.1991619917805
 23
129.2756869937426
 33
0.0
210
0.0
220
0.0
230
-1.0
  0
SOLID
  5
63B
  8
0
  6
CONTINUOUS
 10
10.700972292815541
 20
131.941693604725
 30
0.0
 11
-0.9699350309553783
 21
129.2756869937426
 31
0.0
 12
3.530269049488207
 22
129.2756869937426
 32
0.0
 13
3.530269049488207
 23
129.2756869937426
 33
0.0
210
0.0
220
0.0
230
1.0
  0
SOLID
  5
63C
  8
0
  6
CONTINUOUS
 10
-10.700972292815541
 20
131.941693604725
 30
0.0
 11
-15.11461348041027
 21
131.941693604725
 31
0.0
 12
-3.530269049488207
 22
129.2756869937426
 32
0.0
 13
-3.530269049488207
 23
129.2756869937426
 33
0.0
210
0.0
220
0.0
230
-1.0
  0
SOLID
  5
63D
  8
0
  6
CONTINUOUS
 10
-79.885386519581829
 20
131.941693604725
 30
0.0
 11
-68.301042088659813
 21
129.2756869937426
 31
0.0
 12
-63.800838008215621
 22
129.2756869937426
 32
0.0
 13
-63.800838008215621
 23
129.2756869937426
 33
0.0
210
0.0
220
0.0
230
1.0
  0
SOLID
  5
63E
  8
0
  6
CONTINUOUS
 10
79.885386519581829
 20
131.941693604725
 30
0.0
 11
75.471745331987023
 21
131.941693604725
 31
0.0
 12
63.800838008215621
 22
129.2756869937426
 32
0.0
 13
63.800838008215621
 23
129.2756869937426
 33
0.0
210
0.0
220
0.0
230
-1.0
  0
SOLID
  5
63F
  8
0
  6
CONTINUOUS
 10
495.96348974650448
 20
131.28188016134419
 30
0.0
 11
485.26004413457122
 21
128.96317054966599
 31
0.0
 12
489.96989541312848
 22
128.96317054966599
 32
0.0
 13
489.96989541312848
 23
128.96317054966599
 33
0.0
210
0.0
220
0.0
230
1.0
  0
SOLID
  5
640
  8
0
  6
CONTINUOUS
 10
-495.96348974650448
 20
131.28188016134419
 30
0.0
 11
-500.68203003472189
 21
131.28188016134419
 31
0.0
 12
-489.96989541312848
 22
128.96317054966599
 32
0.0
 13
-489.96989541312848
 23
128.96317054966599
 33
0.0
210
0.0
220
0.0
230
-1.0
  0
SOLID
  5
641
  8
0
  6
CONTINUOUS
 10
419.35295456354351
 20
129.34083700476981
 30
0.0
 11
423.37671195357598
 21
128.40963053158359
 31
0.0
 12
430.53667259918359
 22
128.40963053158359
 32
0.0
 13
430.53667259918359
 23
128.40963053158359
 33
0.0
210
0.0
220
0.0
230
1.0
  0
SOLID
  5
642
  8
0
  6
CONTINUOUS
 10
-419.35295456354351
 20
129.34083700476981
 30
0.0
 11
-423.84044615923187
 21
129.34083700476981
 31
0.0
 12
-430.53667259918359
 22
128.40963053158359
 32
0.0
 13
-430.53667259918359
 23
128.40963053158359
 33
0.0
210
0.0
220
0.0
230
-1.0
  0
SOLID
  5
643
  8
0
  6
CONTINUOUS
 10
243.0300649690472
 20
129.2756869937426
 30
0.0
 11
236.09585814208779
 21
128.3330646645957
 31
0.0
 12
243.4343820835212
 22
128.3330646645957
 32
0.0
 13
243.4343820835212
 23
128.3330646645957
 33
0.0
210
0.0
220
0.0
230
1.0
  0
SOLID
  5
644
  8
0
  6
CONTINUOUS
 10
-243.0300649690472
 20
129.2756869937426
 30
0.0
 11
-247.53026904949189
 21
129.2756869937426
 31
0.0
 12
-243.4343820835212
 22
128.3330646645957
 32
0.0
 13
-243.4343820835212
 23
128.3330646645957
 33
0.0
210
0.0
220
0.0
230
-1.0
  0
SOLID
  5
645
  8
0
  6
CONTINUOUS
 10
175.69895791133709
 20
129.2756869937426
 30
0.0
 11
179.7948448773077
 21
128.3330646645957
 31
0.0
 12
187.13336881874079
 22
128.3330646645957
 32
0.0
 13
187.13336881874079
 23
128.3330646645957
 33
0.0
210
0.0
220
0.0
230
1.0
  0
SOLID
  5
646
  8
0
  6
CONTINUOUS
 10
-175.69895791133709
 20
129.2756869937426
 30
0.0
 11
-180.1991619917805
 21
129.2756869937426
 31
0.0
 12
-187.13336881874079
 22
128.3330646645957
 32
0.0
 13
-187.13336881874079
 23
128.3330646645957
 33
0.0
210
0.0
220
0.0
230
-1.0
  0
SOLID
  5
647
  8
0
  6
CONTINUOUS
 10
-0.9699350309596132
 20
129.2756869937426
 30
0.0
 11
-7.904141857919087
 21
128.3330646645957
 31
0.0
 12
-0.5656179164827062
 22
128.3330646645957
 32
0.0
 13
-0.5656179164827062
 23
128.3330646645957
 33
0.0
  0
SOLID
  5
648
  8
0
  6
CONTINUOUS
 10
0.9699350309596132
 20
129.2756869937426
 30
0.0
 11
-3.530269049488207
 21
129.2756869937426
 31
0.0
 12
0.5656179164827062
 22
128.3330646645957
 32
0.0
 13
0.5656179164827062
 23
128.3330646645957
 33
0.0
210
0.0
220
0.0
230
-1.0
  0
SOLID
  5
649
  8
0
  6
CONTINUOUS
 10
-68.301042088659813
 20
129.2756869937426
 30
0.0
 11
-64.205155122688907
 21
128.3330646645957
 31
0.0
 12
-56.866631181252238
 22
128.3330646645957
 32
0.0
 13
-56.866631181252238
 23
128.3330646645957
 33
0.0
210
0.0
220
0.0
230
1.0
  0
SOLID
  5
64A
  8
0
  6
CONTINUOUS
 10
68.301042088659813
 20
129.2756869937426
 30
0.0
 11
63.800838008212409
 21
129.2756869937426
 31
0.0
 12
56.866631181252238
 22
128.3330646645957
 32
0.0
 13
56.866631181252238
 23
128.3330646645957
 33
0.0
210
0.0
220
0.0
230
-1.0
  0
SOLID
  5
64B
  8
0
  6
CONTINUOUS
 10
485.26004413457122
 20
128.96317054966599
 30
0.0
 11
477.39410172352819
 21
127.9677390592875
 31
0.0
 12
485.37113234344417
 22
127.9677390592875
 32
0.0
 13
485.37113234344417
 23
127.9677390592875
 33
0.0
210
0.0
220
0.0
230
1.0
  0
SOLID
  5
64C
  8
0
  6
CONTINUOUS
 10
-485.26004413457122
 20
128.96317054966599
 30
0.0
 11
-489.96989541312848
 21
128.96317054966599
 31
0.0
 12
-485.37113234344417
 22
127.9677390592875
 32
0.0
 13
-485.37113234344417
 23
127.9677390592875
 33
0.0
210
0.0
220
0.0
230
-1.0
  0
SOLID
  5
64D
  8
0
  6
CONTINUOUS
 10
423.37671195357598
 20
128.40963053158359
 30
0.0
 11
431.84233052119743
 21
127.21968265531289
 31
0.0
 12
439.09348643230101
 22
127.21968265531289
 32
0.0
 13
439.09348643230101
 23
127.21968265531289
 33
0.0
210
0.0
220
0.0
230
1.0
  0
SOLID
  5
64E
  8
0
  6
CONTINUOUS
 10
-423.37671195357598
 20
128.40963053158359
 30
0.0
 11
-430.53667259918359
 21
128.40963053158359
 31
0.0
 12
-439.09348643230101
 22
127.21968265531289
 32
0.0
 13
-439.09348643230101
 23
127.21968265531289
 33
0.0
210
0.0
220
0.0
230
-1.0
  0
SOLID
  5
64F
  8
0
  6
CONTINUOUS
 10
236.09585814208779
 20
128.3330646645957
 30
0.0
 11
227.41811270954389
 21
127.15342915393209
 31
0.0
 12
234.8199554219988
 22
127.15342915393209
 32
0.0
 13
234.8199554219988
 23
127.15342915393209
 33
0.0
210
0.0
220
0.0
230
1.0
  0
SOLID
  5
650
  8
0
  6
CONTINUOUS
 10
-236.09585814208779
 20
128.3330646645957
 30
0.0
 11
-243.4343820835212
 21
128.3330646645957
 31
0.0
 12
-234.8199554219988
 22
127.15342915393209
 32
0.0
 13
-234.8199554219988
 23
127.15342915393209
 33
0.0
210
0.0
220
0.0
230
-1.0
  0
SOLID
  5
651
  8
0
  6
CONTINUOUS
 10
179.7948448773077
 20
128.3330646645957
 30
0.0
 11
188.40927153883021
 21
127.15342915393209
 31
0.0
 12
195.81111425128569
 22
127.15342915393209
 32
0.0
 13
195.81111425128569
 23
127.15342915393209
 33
0.0
210
0.0
220
0.0
230
1.0
  0
SOLID
  5
652
  8
0
  6
CONTINUOUS
 10
-179.7948448773077
 20
128.3330646645957
 30
0.0
 11
-187.13336881874079
 21
128.3330646645957
 31
0.0
 12
-195.81111425128569
 22
127.15342915393209
 32
0.0
 13
-195.81111425128569
 23
127.15342915393209
 33
0.0
210
0.0
220
0.0
230
-1.0
  0
SOLID
  5
653
  8
0
  6
CONTINUOUS
 10
-7.904141857919087
 20
128.3330646645957
 30
0.0
 11
-16.58188729046293
 21
127.15342915393209
 31
0.0
 12
-9.1800445780080189
 22
127.15342915393209
 32
0.0
 13
-9.1800445780080189
 23
127.15342915393209
 33
0.0
210
0.0
220
0.0
230
1.0
  0
SOLID
  5
654
  8
0
  6
CONTINUOUS
 10
7.904141857919087
 20
128.3330646645957
 30
0.0
 11
0.5656179164854788
 21
128.3330646645957
 31
0.0
 12
9.1800445780080189
 22
127.15342915393209
 32
0.0
 13
9.1800445780080189
 23
127.15342915393209
 33
0.0
210
0.0
220
0.0
230
-1.0
  0
SOLID
  5
655
  8
0
  6
CONTINUOUS
 10
-64.205155122686136
 20
128.3330646645957
 30
0.0
 11
-55.590728461163557
 21
127.15342915393209
 31
0.0
 12
-48.18888574870752
 22
127.15342915393209
 32
0.0
 13
-48.18888574870752
 23
127.15342915393209
 33
0.0
210
0.0
220
0.0
230
1.0
  0
SOLID
  5
656
  8
0
  6
CONTINUOUS
 10
64.205155122686136
 20
128.3330646645957
 30
0.0
 11
56.866631181252238
 21
128.3330646645957
 31
0.0
 12
48.18888574870752
 22
127.15342915393209
 32
0.0
 13
48.18888574870752
 23
127.15342915393209
 33
0.0
210
0.0
220
0.0
230
-1.0
  0
SOLID
  5
657
  8
0
  6
CONTINUOUS
 10
477.39410172352819
 20
127.9677390592875
 30
0.0
 11
469.98207245602839
 21
127.0297500739984
 31
0.0
 12
477.92992019397059
 22
127.0297500739984
 32
0.0
 13
477.92992019397059
 23
127.0297500739984
 33
0.0
  0
SOLID
  5
658
  8
0
  6
CONTINUOUS
 10
-477.39410172352819
 20
127.9677390592875
 30
0.0
 11
-485.37113234344417
 21
127.9677390592875
 31
0.0
 12
-477.92992019397059
 22
127.0297500739984
 32
0.0
 13
-477.92992019397059
 23
127.0297500739984
 33
0.0
210
0.0
220
0.0
230
-1.0
  0
SOLID
  5
659
  8
0
  6
CONTINUOUS
 10
431.84233052119743
 20
127.21968265531289
 30
0.0
 11
433.1935634777289
 21
127.0297500739984
 31
0.0
 12
442.89843749991547
 22
127.0297500739984
 32
0.0
 13
442.89843749991547
 23
127.0297500739984
 33
0.0
  0
SOLID
  5
65A
  8
0
  6
CONTINUOUS
 10
-431.84233052119743
 20
127.21968265531289
 30
0.0
 11
-439.09348643230101
 21
127.21968265531289
 31
0.0
 12
-442.89843749991547
 22
127.0297500739984
 32
0.0
 13
-442.89843749991547
 23
127.0297500739984
 33
0.0
210
0.0
220
0.0
230
-1.0
  0
SOLID
  5
65B
  8
0
  6
CONTINUOUS
 10
469.98207245602839
 20
127.0297500739984
 30
0.0
 11
454.53362420991908
 21
126.4489538938016
 31
0.0
 12
473.32237398582771
 22
126.4489538938016
 32
0.0
 13
473.32237398582771
 23
126.4489538938016
 33
0.0
210
0.0
220
0.0
230
1.0
  0
SOLID
  5
65C
  8
0
  6
CONTINUOUS
 10
-469.98207245602839
 20
127.0297500739984
 30
0.0
 11
-477.92992019397059
 21
127.0297500739984
 31
0.0
 12
-473.32237398582771
 22
126.4489538938016
 32
0.0
 13
-473.32237398582771
 23
126.4489538938016
 33
0.0
210
0.0
220
0.0
230
-1.0
  0
SOLID
  5
65D
  8
0
  6
CONTINUOUS
 10
433.1935634777289
 20
127.0297500739984
 30
0.0
 11
437.32550826718222
 21
126.4489538938016
 31
0.0
 12
454.53362420991908
 22
126.4489538938016
 32
0.0
 13
454.53362420991908
 23
126.4489538938016
 33
0.0
210
0.0
220
0.0
230
1.0
  0
SOLID
  5
65E
  8
0
  6
CONTINUOUS
 10
-433.1935634777289
 20
127.0297500739984
 30
0.0
 11
-442.89843749991547
 21
127.0297500739984
 31
0.0
 12
-454.53362420991908
 22
126.4489538938016
 32
0.0
 13
-454.53362420991908
 23
126.4489538938016
 33
0.0
210
0.0
220
0.0
230
-1.0
  0
SOLID
  5
65F
  8
0
  6
CONTINUOUS
 10
-16.581887290479969
 20
127.15342915393209
 30
0.0
 11
-32.319618147073861
 21
126.4489538938016
 31
0.0
 12
-14.324557784325989
 22
126.4489538938016
 32
0.0
 13
-14.324557784325989
 23
126.4489538938016
 33
0.0
210
0.0
220
0.0
230
1.0
  0
SOLID
  5
660
  8
0
  6
CONTINUOUS
 10
16.581887290479969
 20
127.15342915393209
 30
0.0
 11
9.1800445780080189
 21
127.15342915393209
 31
0.0
 12
14.324557784325989
 22
126.4489538938016
 32
0.0
 13
14.324557784325989
 23
126.4489538938016
 33
0.0
210
0.0
220
0.0
230
-1.0
  0
SOLID
  5
661
  8
0
  6
CONTINUOUS
 10
-55.590728461163557
 20
127.15342915393209
 30
0.0
 11
-50.446215254845583
 21
126.4489538938016
 31
0.0
 12
-32.451154892095559
 22
126.4489538938016
 32
0.0
 13
-32.451154892095559
 23
126.4489538938016
 33
0.0
210
0.0
220
0.0
230
1.0
  0
SOLID
  5
662
  8
0
  6
CONTINUOUS
 10
55.590728461163557
 20
127.15342915393209
 30
0.0
 11
48.1888857486924
 21
127.15342915393209
 31
0.0
 12
32.451154892095559
 22
126.4489538938016
 32
0.0
 13
32.451154892095559
 23
126.4489538938016
 33
0.0
210
0.0
220
0.0
230
-1.0
  0
SOLID
  5
663
  8
0
  6
CONTINUOUS
 10
227.41811270954099
 20
127.15342915393209
 30
0.0
 11
211.61461348041561
 21
126.44600987399529
 31
0.0
 12
229.6539431657778
 22
126.44600987399529
 32
0.0
 13
229.6539431657778
 23
126.44600987399529
 33
0.0
210
0.0
220
0.0
230
1.0
  0
SOLID
  5
664
  8
0
  6
CONTINUOUS
 10
-227.41811270954099
 20
127.15342915393209
 30
0.0
 11
-234.8199554219988
 21
127.15342915393209
 31
0.0
 12
-229.6539431657778
 22
126.44600987399529
 32
0.0
 13
-229.6539431657778
 23
126.44600987399529
 33
0.0
210
0.0
220
0.0
230
-1.0
  0
SOLID
  5
665
  8
0
  6
CONTINUOUS
 10
188.40927153883021
 20
127.15342915393209
 30
0.0
 11
193.57528379505129
 21
126.44600987399529
 31
0.0
 12
211.61461348041561
 22
126.44600987399529
 32
0.0
 13
211.61461348041561
 23
126.44600987399529
 33
0.0
  0
SOLID
  5
666
  8
0
  6
CONTINUOUS
 10
-188.40927153883021
 20
127.15342915393209
 30
0.0
 11
-195.81111425128569
 21
127.15342915393209
 31
0.0
 12
-211.61461348041561
 22
126.44600987399529
 32
0.0
 13
-211.61461348041561
 23
126.44600987399529
 33
0.0
210
0.0
220
0.0
230
-1.0
  0
SOLID
  5
667
  8
0
  6
CONTINUOUS
 10
-32.319618147073861
 20
126.4489538938016
 30
0.0
 11
-32.385386519563433
 21
126.44600987399529
 31
0.0
 12
-14.34605683422922
 22
126.44600987399529
 32
0.0
 13
-14.34605683422922
 23
126.44600987399529
 33
0.0
210
0.0
220
0.0
230
1.0
  0
SOLID
  5
668
  8
0
  6
CONTINUOUS
 10
32.319618147073861
 20
126.4489538938016
 30
0.0
 11
14.324557784325989
 21
126.4489538938016
 31
0.0
 12
14.34605683422922
 22
126.44600987399529
 32
0.0
 13
14.34605683422922
 23
126.44600987399529
 33
0.0
210
0.0
220
0.0
230
-1.0
  0
SOLID
  5
669
  8
0
  6
CONTINUOUS
 10
-50.446215254845583
 20
126.4489538938016
 30
0.0
 11
-50.424716204942349
 21
126.44600987399529
 31
0.0
 12
-32.385386519605973
 22
126.44600987399529
 32
0.0
 13
-32.385386519605973
 23
126.44600987399529
 33
0.0
210
0.0
220
0.0
230
1.0
  0
SOLID
  5
66A
  8
0
  6
CONTINUOUS
 10
50.446215254845583
 20
126.4489538938016
 30
0.0
 11
32.451154892095559
 21
126.4489538938016
 31
0.0
 12
32.385386519605973
 22
126.44600987399529
 32
0.0
 13
32.385386519605973
 23
126.44600987399529
 33
0.0
210
0.0
220
0.0
230
-1.0
  0
SOLID
  5
66B
  8
0
  6
CONTINUOUS
 10
437.32550826718222
 20
126.4489538938016
 30
0.0
 11
438.76977427907332
 21
126.2459443606066
 31
0.0
 12
471.71186786202259
 22
126.2459443606066
 32
0.0
 13
471.71186786202259
 23
126.2459443606066
 33
0.0
210
0.0
220
0.0
230
1.0
  0
SOLID
  5
66C
  8
0
  6
CONTINUOUS
 10
-437.32550826718222
 20
126.4489538938016
 30
0.0
 11
-473.32237398582771
 21
126.4489538938016
 31
0.0
 12
-471.71186786202259
 22
126.2459443606066
 32
0.0
 13
-471.71186786202259
 23
126.2459443606066
 33
0.0
210
0.0
220
0.0
230
-1.0
  0
SOLID
  5
66D
  8
0
  6
CONTINUOUS
 10
193.57528379505129
 20
126.44600987399529
 30
0.0
 11
195.60630650543541
 21
126.1678873005181
 31
0.0
 12
227.6229204553936
 22
126.1678873005181
 32
0.0
 13
227.6229204553936
 23
126.1678873005181
 33
0.0
210
0.0
220
0.0
230
1.0
  0
SOLID
  5
66E
  8
0
  6
CONTINUOUS
 10
-193.57528379505129
 20
126.44600987399529
 30
0.0
 11
-229.6539431657778
 21
126.44600987399529
 31
0.0
 12
-227.6229204553936
 22
126.1678873005181
 32
0.0
 13
-227.6229204553936
 23
126.1678873005181
 33
0.0
210
0.0
220
0.0
230
-1.0
  0
SOLID
  5
66F
  8
0
  6
CONTINUOUS
 10
-50.424716204942349
 20
126.44600987399529
 30
0.0
 11
-48.393693494558178
 21
126.1678873005181
 31
0.0
 12
-16.37707954461338
 22
126.1678873005181
 32
0.0
 13
-16.37707954461338
 23
126.1678873005181
 33
0.0
210
0.0
220
0.0
230
1.0
  0
SOLID
  5
670
  8
0
  6
CONTINUOUS
 10
50.424716204942349
 20
126.44600987399529
 30
0.0
 11
14.34605683422922
 21
126.44600987399529
 31
0.0
 12
16.37707954461338
 22
126.1678873005181
 32
0.0
 13
16.37707954461338
 23
126.1678873005181
 33
0.0
210
0.0
220
0.0
230
-1.0
  0
SOLID
  5
671
  8
0
  6
CONTINUOUS
 10
-443.12238678905919
 20
126.0237027251456
 30
0.0
 11
-469.94879048707691
 21
126.0237027251456
 31
0.0
 12
-454.35440246126348
 22
125.4502031253563
 32
0.0
 13
-454.35440246126348
 23
125.4502031253563
 33
0.0
210
0.0
220
0.0
230
-1.0
  0
SOLID
  5
672
  8
0
  6
CONTINUOUS
 10
438.76977427907332
 20
126.2459443606066
 30
0.0
 11
443.12238678905919
 21
126.0237027251456
 31
0.0
 12
469.94879048707691
 22
126.0237027251456
 32
0.0
 13
469.94879048707691
 23
126.0237027251456
 33
0.0
210
0.0
220
0.0
230
1.0
  0
SOLID
  5
673
  8
0
  6
CONTINUOUS
 10
-438.76977427907332
 20
126.2459443606066
 30
0.0
 11
-471.71186786202259
 21
126.2459443606066
 31
0.0
 12
-469.94879048707691
 22
126.0237027251456
 32
0.0
 13
-469.94879048707691
 23
126.0237027251456
 33
0.0
210
0.0
220
0.0
230
-1.0
  0
SOLID
  5
674
  8
0
  6
CONTINUOUS
 10
32.475031895241727
 20
125.4502031253563
 30
0.0
 11
32.295741143929732
 21
125.4502031253563
 31
0.0
 12
32.385386519606527
 22
125.4461615124922
 32
0.0
 13
32.385386519606527
 23
125.4461615124922
 33
0.0
210
0.0
220
0.0
230
-1.0
  0
SOLID
  5
675
  8
0
  6
CONTINUOUS
 10
-211.5249681047377
 20
125.4502031253563
 30
0.0
 11
-211.7042588560914
 21
125.4502031253563
 31
0.0
 12
-211.61461348041459
 22
125.4461615124922
 32
0.0
 13
-211.61461348041459
 23
125.4461615124922
 33
0.0
210
0.0
220
0.0
230
-1.0
  0
SOLID
  5
676
  8
0
  6
CONTINUOUS
 10
195.60630650543541
 20
126.1678873005181
 30
0.0
 11
211.5249681047377
 21
125.4502031253563
 31
0.0
 12
211.7042588560914
 22
125.4502031253563
 32
0.0
 13
211.7042588560914
 23
125.4502031253563
 33
0.0
210
0.0
220
0.0
230
1.0
  0
SOLID
  5
677
  8
0
  6
CONTINUOUS
 10
-195.60630650543541
 20
126.1678873005181
 30
0.0
 11
-227.6229204553936
 21
126.1678873005181
 31
0.0
 12
-211.7042588560914
 22
125.4502031253563
 32
0.0
 13
-211.7042588560914
 23
125.4502031253563
 33
0.0
210
0.0
220
0.0
230
-1.0
  0
SOLID
  5
678
  8
0
  6
CONTINUOUS
 10
-48.39369349454401
 20
126.1678873005181
 30
0.0
 11
-32.475031895241727
 21
125.4502031253563
 31
0.0
 12
-32.295741143929732
 22
125.4502031253563
 32
0.0
 13
-32.295741143929732
 23
125.4502031253563
 33
0.0
210
0.0
220
0.0
230
1.0
  0
SOLID
  5
679
  8
0
  6
CONTINUOUS
 10
48.39369349454401
 20
126.1678873005181
 30
0.0
 11
16.377079544627549
 21
126.1678873005181
 31
0.0
 12
32.295741143929732
 22
125.4502031253563
 32
0.0
 13
32.295741143929732
 23
125.4502031253563
 33
0.0
210
0.0
220
0.0
230
-1.0
  0
LINE
  5
67A
  8
0
  6
CONTINUOUS
 10
-160.01966414458951
 20
155.35481435964499
 30
0.0
 11
-160.0196641445896
 21
155.29594797323051
 31
0.0
  0
LINE
  5
67B
  8
0
  6
CONTINUOUS
 10
-147.3478522416649
 20
155.29594797323051
 30
0.0
 11
-160.01966414458951
 21
155.35481435964499
 31
0.0
  0
LINE
  5
67C
  8
0
  6
CONTINUOUS
 10
-160.0196641445896
 20
155.29594797323051
 30
0.0
 11
-160.01966414459079
 21
154.38790573205961
 31
0.0
  0
LINE
  5
67D
  8
0
  6
CONTINUOUS
 10
-147.3478522416649
 20
155.29594797323051
 30
0.0
 11
-134.82672952901109
 21
154.38790573205961
 31
0.0
  0
LINE
  5
67E
  8
0
  6
CONTINUOUS
 10
-160.01966414459079
 20
154.38790573205961
 30
0.0
 11
-160.01966414459079
 21
154.35433609091999
 31
0.0
  0
LINE
  5
67F
  8
0
  6
CONTINUOUS
 10
-134.82672952901109
 20
154.38790573205961
 30
0.0
 11
-134.59040655063379
 21
154.35433609091999
 31
0.0
  0
LINE
  5
680
  8
0
  6
CONTINUOUS
 10
-160.01966414459079
 20
154.35433609091999
 30
0.0
 11
-147.46028420726981
 21
154.2997148814039
 31
0.0
  0
LINE
  5
681
  8
0
  6
CONTINUOUS
 10
-134.59040655063379
 20
154.35433609091999
 30
0.0
 11
-134.2058851057445
 21
154.2997148814039
 31
0.0
  0
LINE
  5
682
  8
0
  6
CONTINUOUS
 10
325.82200110692332
 20
155.26129274069751
 30
0.0
 11
313.98950901572641
 21
154.26386912158159
 31
0.0
  0
LINE
  5
683
  8
0
  6
CONTINUOUS
 10
341.4072258539058
 20
155.26129274069751
 30
0.0
 11
353.2397179451026
 21
154.26386912158159
 31
0.0
  0
LINE
  5
684
  8
0
  6
CONTINUOUS
 10
81.822001106923054
 20
155.26129274069751
 30
0.0
 11
69.989509015726284
 21
154.26386912158159
 31
0.0
  0
LINE
  5
685
  8
0
  6
CONTINUOUS
 10
97.407225853905459
 20
155.26129274069751
 30
0.0
 11
109.2397179451023
 21
154.26386912158159
 31
0.0
  0
LINE
  5
686
  8
0
  6
CONTINUOUS
 10
341.33263604773168
 20
154.26386912158159
 30
0.0
 11
344.93343288665301
 21
153.961561288609
 31
0.0
  0
LINE
  5
687
  8
0
  6
CONTINUOUS
 10
353.2397179451026
 20
154.26386912158159
 30
0.0
 11
356.8260126489767
 21
153.961561288609
 31
0.0
  0
LINE
  5
688
  8
0
  6
CONTINUOUS
 10
313.98950901572641
 20
154.26386912158159
 30
0.0
 11
310.4032143118522
 21
153.961561288609
 31
0.0
  0
LINE
  5
689
  8
0
  6
CONTINUOUS
 10
325.8965909130963
 20
154.26386912158159
 30
0.0
 11
322.29579407417572
 21
153.961561288609
 31
0.0
  0
LINE
  5
68A
  8
0
  6
CONTINUOUS
 10
97.332636047731668
 20
154.26386912158159
 30
0.0
 11
100.9334328866525
 21
153.961561288609
 31
0.0
  0
LINE
  5
68B
  8
0
  6
CONTINUOUS
 10
109.2397179451023
 20
154.26386912158159
 30
0.0
 11
112.8260126489765
 21
153.961561288609
 31
0.0
  0
LINE
  5
68C
  8
0
  6
CONTINUOUS
 10
69.989509015726284
 20
154.26386912158159
 30
0.0
 11
66.403214311852125
 21
153.961561288609
 31
0.0
  0
LINE
  5
68D
  8
0
  6
CONTINUOUS
 10
81.896590913096304
 20
154.26386912158159
 30
0.0
 11
78.295794074175603
 21
153.961561288609
 31
0.0
  0
LINE
  5
68E
  8
0
  6
CONTINUOUS
 10
-147.46028420726981
 20
154.2997148814039
 30
0.0
 11
-135.0490377365436
 21
153.40609932328121
 31
0.0
  0
LINE
  5
68F
  8
0
  6
CONTINUOUS
 10
-134.2058851057445
 20
154.2997148814039
 30
0.0
 11
-127.91502577419941
 21
153.40609932328121
 31
0.0
  0
LINE
  5
690
  8
0
  6
CONTINUOUS
 10
344.93343288665301
 20
153.961561288609
 30
0.0
 11
356.60516425688081
 21
152.9816515698958
 31
0.0
  0
LINE
  5
691
  8
0
  6
CONTINUOUS
 10
356.8260126489767
 20
153.961561288609
 30
0.0
 11
362.5338053612133
 21
152.9816515698958
 31
0.0
  0
LINE
  5
692
  8
0
  6
CONTINUOUS
 10
310.4032143118522
 20
153.961561288609
 30
0.0
 11
304.6954215996156
 21
152.9816515698958
 31
0.0
  0
LINE
  5
693
  8
0
  6
CONTINUOUS
 10
322.29579407417572
 20
153.961561288609
 30
0.0
 11
310.62406270395007
 21
152.9816515698958
 31
0.0
  0
LINE
  5
694
  8
0
  6
CONTINUOUS
 10
100.9334328866525
 20
153.961561288609
 30
0.0
 11
112.60516425687911
 21
152.9816515698958
 31
0.0
  0
LINE
  5
695
  8
0
  6
CONTINUOUS
 10
112.8260126489765
 20
153.961561288609
 30
0.0
 11
118.5338053612131
 21
152.9816515698958
 31
0.0
  0
LINE
  5
696
  8
0
  6
CONTINUOUS
 10
66.403214311852125
 20
153.961561288609
 30
0.0
 11
60.695421599615571
 21
152.9816515698958
 31
0.0
  0
LINE
  5
697
  8
0
  6
CONTINUOUS
 10
78.295794074175603
 20
153.961561288609
 30
0.0
 11
66.624062703949846
 21
152.9816515698958
 31
0.0
  0
LINE
  5
698
  8
0
  6
CONTINUOUS
 10
-135.0490377365436
 20
153.40609932328121
 30
0.0
 11
-129.5608080390806
 21
152.63068763613239
 31
0.0
  0
LINE
  5
699
  8
0
  6
CONTINUOUS
 10
-127.91502577419941
 20
153.40609932328121
 30
0.0
 11
-122.45629600662799
 21
152.63068763613239
 31
0.0
  0
LINE
  5
69A
  8
0
  6
CONTINUOUS
 10
-129.5608080390806
 20
152.63068763613239
 30
0.0
 11
-122.7859247324122
 21
151.673489416552
 31
0.0
  0
LINE
  5
69B
  8
0
  6
CONTINUOUS
 10
-122.45629600662799
 20
152.63068763613239
 30
0.0
 11
-117.9685947075366
 21
151.673489416552
 31
0.0
  0
LINE
  5
69C
  8
0
  6
CONTINUOUS
 10
356.60516425687871
 20
152.9816515698958
 30
0.0
 11
366.07832181505449
 21
151.36209838443219
 31
0.0
  0
LINE
  5
69D
  8
0
  6
CONTINUOUS
 10
362.5338053612133
 20
152.9816515698958
 30
0.0
 11
371.96740285752861
 21
151.36209838443219
 31
0.0
  0
LINE
  5
69E
  8
0
  6
CONTINUOUS
 10
304.6954215996156
 20
152.9816515698958
 30
0.0
 11
295.2618241033004
 21
151.36209838443219
 31
0.0
  0
LINE
  5
69F
  8
0
  6
CONTINUOUS
 10
310.62406270395007
 20
152.9816515698958
 30
0.0
 11
301.1509051457748
 21
151.36209838443219
 31
0.0
  0
LINE
  5
6A0
  8
0
  6
CONTINUOUS
 10
112.6051642568778
 20
152.9816515698958
 30
0.0
 11
122.0783218150541
 21
151.36209838443219
 31
0.0
  0
LINE
  5
6A1
  8
0
  6
CONTINUOUS
 10
118.5338053612131
 20
152.9816515698958
 30
0.0
 11
127.9674028575284
 21
151.36209838443219
 31
0.0
  0
LINE
  5
6A2
  8
0
  6
CONTINUOUS
 10
60.695421599615571
 20
152.9816515698958
 30
0.0
 11
51.261824103300398
 21
151.36209838443219
 31
0.0
  0
LINE
  5
6A3
  8
0
  6
CONTINUOUS
 10
66.624062703949846
 20
152.9816515698958
 30
0.0
 11
57.150905145774438
 21
151.36209838443219
 31
0.0
  0
LINE
  5
6A4
  8
0
  6
CONTINUOUS
 10
366.07832181505449
 20
151.36209838443219
 30
0.0
 11
371.60516425687968
 21
150.4172164665242
 31
0.0
  0
LINE
  5
6A5
  8
0
  6
CONTINUOUS
 10
371.96740285752861
 20
151.36209838443219
 30
0.0
 11
375.5962452069997
 21
150.4172164665242
 31
0.0
  0
LINE
  5
6A6
  8
0
  6
CONTINUOUS
 10
295.2618241033004
 20
151.36209838443219
 30
0.0
 11
291.63298175382931
 21
150.4172164665242
 31
0.0
  0
LINE
  5
6A7
  8
0
  6
CONTINUOUS
 10
301.1509051457748
 20
151.36209838443219
 30
0.0
 11
295.62406270395002
 21
150.4172164665242
 31
0.0
  0
LINE
  5
6A8
  8
0
  6
CONTINUOUS
 10
122.0783218150541
 20
151.36209838443219
 30
0.0
 11
127.6051642568796
 21
150.4172164665242
 31
0.0
  0
LINE
  5
6A9
  8
0
  6
CONTINUOUS
 10
127.9674028575284
 20
151.36209838443219
 30
0.0
 11
131.5962452069995
 21
150.4172164665242
 31
0.0
  0
LINE
  5
6AA
  8
0
  6
CONTINUOUS
 10
51.261824103300398
 20
151.36209838443219
 30
0.0
 11
47.63298175382922
 21
150.4172164665242
 31
0.0
  0
LINE
  5
6AB
  8
0
  6
CONTINUOUS
 10
57.150905145774438
 20
151.36209838443219
 30
0.0
 11
51.624062703949399
 21
150.4172164665242
 31
0.0
  0
LINE
  5
6AC
  8
0
  6
CONTINUOUS
 10
-122.7859247324122
 20
151.673489416552
 30
0.0
 11
-115.0164662341811
 21
150.02429368544901
 31
0.0
  0
LINE
  5
6AD
  8
0
  6
CONTINUOUS
 10
-117.9685947075366
 20
151.673489416552
 30
0.0
 11
-110.2365516745155
 21
150.02429368544901
 31
0.0
  0
LINE
  5
6AE
  8
0
  6
CONTINUOUS
 10
-115.0164662341811
 20
150.02429368544901
 30
0.0
 11
-110.6709451948755
 21
149.10188516121619
 31
0.0
  0
LINE
  5
6AF
  8
0
  6
CONTINUOUS
 10
-110.2365516745155
 20
150.02429368544901
 30
0.0
 11
-107.0149124170058
 21
149.10188516121619
 31
0.0
  0
LINE
  5
6B0
  8
0
  6
CONTINUOUS
 10
371.60516425687871
 20
150.4172164665242
 30
0.0
 11
382.99990415648688
 21
147.4629040281668
 31
0.0
  0
LINE
  5
6B1
  8
0
  6
CONTINUOUS
 10
375.5962452069997
 20
150.4172164665242
 30
0.0
 11
386.942355114169
 21
147.4629040281668
 31
0.0
  0
LINE
  5
6B2
  8
0
  6
CONTINUOUS
 10
291.63298175382931
 20
150.4172164665242
 30
0.0
 11
280.28687184666001
 21
147.4629040281668
 31
0.0
  0
LINE
  5
6B3
  8
0
  6
CONTINUOUS
 10
295.62406270395002
 20
150.4172164665242
 30
0.0
 11
284.22932280434247
 21
147.4629040281668
 31
0.0
  0
LINE
  5
6B4
  8
0
  6
CONTINUOUS
 10
127.60516425687869
 20
150.4172164665242
 30
0.0
 11
138.99990415648671
 21
147.4629040281668
 31
0.0
  0
LINE
  5
6B5
  8
0
  6
CONTINUOUS
 10
131.5962452069995
 20
150.4172164665242
 30
0.0
 11
142.94235511416881
 21
147.4629040281668
 31
0.0
  0
LINE
  5
6B6
  8
0
  6
CONTINUOUS
 10
47.63298175382922
 20
150.4172164665242
 30
0.0
 11
36.286871846659842
 21
147.4629040281668
 31
0.0
  0
LINE
  5
6B7
  8
0
  6
CONTINUOUS
 10
51.624062703949512
 20
150.4172164665242
 30
0.0
 11
40.229322804342317
 21
147.4629040281668
 31
0.0
  0
LINE
  5
6B8
  8
0
  6
CONTINUOUS
 10
382.99990415648688
 20
147.4629040281668
 30
0.0
 11
386.44164733139212
 21
146.570563811467
 31
0.0
  0
LINE
  5
6B9
  8
0
  6
CONTINUOUS
 10
386.942355114169
 20
147.4629040281668
 30
0.0
 11
389.48407879917528
 21
146.570563811467
 31
0.0
  0
LINE
  5
6BA
  8
0
  6
CONTINUOUS
 10
280.28687184666001
 20
147.4629040281668
 30
0.0
 11
277.74514816165362
 21
146.570563811467
 31
0.0
  0
LINE
  5
6BB
  8
0
  6
CONTINUOUS
 10
284.22932280434247
 20
147.4629040281668
 30
0.0
 11
280.78757962943752
 21
146.570563811467
 31
0.0
  0
LINE
  5
6BC
  8
0
  6
CONTINUOUS
 10
138.99990415648671
 20
147.4629040281668
 30
0.0
 11
142.44164733139189
 21
146.570563811467
 31
0.0
  0
LINE
  5
6BD
  8
0
  6
CONTINUOUS
 10
142.94235511416881
 20
147.4629040281668
 30
0.0
 11
145.48407879917519
 21
146.570563811467
 31
0.0
  0
LINE
  5
6BE
  8
0
  6
CONTINUOUS
 10
36.286871846659842
 20
147.4629040281668
 30
0.0
 11
33.745148161653461
 21
146.570563811467
 31
0.0
  0
LINE
  5
6BF
  8
0
  6
CONTINUOUS
 10
40.229322804342317
 20
147.4629040281668
 30
0.0
 11
36.787579629437353
 21
146.570563811467
 31
0.0
  0
LINE
  5
6C0
  8
0
  6
CONTINUOUS
 10
-110.6709451948755
 20
149.10188516121619
 30
0.0
 11
-101.7827837178741
 21
146.56872388000909
 31
0.0
  0
LINE
  5
6C1
  8
0
  6
CONTINUOUS
 10
-107.0149124170058
 20
149.10188516121619
 30
0.0
 11
-98.167496532673681
 21
146.56872388000909
 31
0.0
  0
LINE
  5
6C2
  8
0
  6
CONTINUOUS
 10
-101.7827837178741
 20
146.56872388000909
 30
0.0
 11
-98.704099123933702
 21
145.69128655727391
 31
0.0
  0
LINE
  5
6C3
  8
0
  6
CONTINUOUS
 10
-98.167496532673681
 20
146.56872388000909
 30
0.0
 11
-95.738173191083135
 21
145.69128655727391
 31
0.0
  0
LINE
  5
6C4
  8
0
  6
CONTINUOUS
 10
386.44164733139138
 20
146.570563811467
 30
0.0
 11
398.76217447616938
 21
142.26397821981291
 31
0.0
  0
LINE
  5
6C5
  8
0
  6
CONTINUOUS
 10
389.48407879917528
 20
146.570563811467
 30
0.0
 11
401.75086941889782
 21
142.26397821981291
 31
0.0
  0
LINE
  5
6C6
  8
0
  6
CONTINUOUS
 10
277.74514816165362
 20
146.570563811467
 30
0.0
 11
265.47835754193108
 21
142.26397821981291
 31
0.0
  0
LINE
  5
6C7
  8
0
  6
CONTINUOUS
 10
280.78757962943752
 20
146.570563811467
 30
0.0
 11
268.46705248465992
 21
142.26397821981291
 31
0.0
  0
LINE
  5
6C8
  8
0
  6
CONTINUOUS
 10
142.44164733139121
 20
146.570563811467
 30
0.0
 11
154.76217447616901
 21
142.26397821981291
 31
0.0
  0
LINE
  5
6C9
  8
0
  6
CONTINUOUS
 10
145.48407879917519
 20
146.570563811467
 30
0.0
 11
157.75086941889779
 21
142.26397821981291
 31
0.0
  0
LINE
  5
6CA
  8
0
  6
CONTINUOUS
 10
33.745148161653461
 20
146.570563811467
 30
0.0
 11
21.478357541930901
 21
142.26397821981291
 31
0.0
  0
LINE
  5
6CB
  8
0
  6
CONTINUOUS
 10
36.787579629437353
 20
146.570563811467
 30
0.0
 11
24.467052484659408
 21
142.26397821981291
 31
0.0
  0
LINE
  5
6CC
  8
0
  6
CONTINUOUS
 10
-98.704099123933702
 20
145.69128655727391
 30
0.0
 11
-89.172275088260207
 21
142.26397821981291
 31
0.0
  0
LINE
  5
6CD
  8
0
  6
CONTINUOUS
 10
-95.738173191083135
 20
145.69128655727391
 30
0.0
 11
-86.249130581102463
 21
142.26397821981291
 31
0.0
  0
LINE
  5
6CE
  8
0
  6
CONTINUOUS
 10
398.76217447616938
 20
142.26397821981291
 30
0.0
 11
401.11461348041661
 21
141.44169360472401
 31
0.0
  0
LINE
  5
6CF
  8
0
  6
CONTINUOUS
 10
401.75086941889782
 20
142.26397821981291
 30
0.0
 11
402.3567633458054
 21
141.44169360472401
 31
0.0
  0
LINE
  5
6D0
  8
0
  6
CONTINUOUS
 10
265.47835754193108
 20
142.26397821981291
 30
0.0
 11
264.87246361502361
 21
141.44169360472401
 31
0.0
  0
LINE
  5
6D1
  8
0
  6
CONTINUOUS
 10
268.46705248465992
 20
142.26397821981291
 30
0.0
 11
266.11461348041291
 21
141.44169360472401
 31
0.0
  0
LINE
  5
6D2
  8
0
  6
CONTINUOUS
 10
154.76217447616901
 20
142.26397821981291
 30
0.0
 11
157.1146134804161
 21
141.44169360472401
 31
0.0
  0
LINE
  5
6D3
  8
0
  6
CONTINUOUS
 10
157.75086941889779
 20
142.26397821981291
 30
0.0
 11
158.35676334580529
 21
141.44169360472401
 31
0.0
  0
LINE
  5
6D4
  8
0
  6
CONTINUOUS
 10
21.478357541930901
 20
142.26397821981291
 30
0.0
 11
20.872463615023388
 21
141.44169360472401
 31
0.0
  0
LINE
  5
6D5
  8
0
  6
CONTINUOUS
 10
24.467052484659408
 20
142.26397821981291
 30
0.0
 11
22.114613480412281
 21
141.44169360472401
 31
0.0
  0
LINE
  5
6D6
  8
0
  6
CONTINUOUS
 10
-89.172275088260207
 20
142.26397821981291
 30
0.0
 11
-86.885386519583875
 21
141.44169360472401
 31
0.0
  0
LINE
  5
6D7
  8
0
  6
CONTINUOUS
 10
-86.249130581102463
 20
142.26397821981291
 30
0.0
 11
-85.64323665419488
 21
141.44169360472401
 31
0.0
  0
LINE
  5
6D8
  8
0
  6
CONTINUOUS
 10
502.96049154856922
 20
179.1783236382357
 30
0.0
 11
502.96049154856922
 21
135.53654247744851
 31
0.0
  0
LINE
  5
6D9
  8
0
  6
CONTINUOUS
 10
503.96049154856911
 20
179.1783236382357
 30
0.0
 11
503.96049154856911
 21
135.53654247744851
 31
0.0
  0
LINE
  5
6DA
  8
0
  6
CONTINUOUS
 10
502.96049154856922
 20
135.53654247744851
 30
0.0
 11
502.8793992379521
 21
134.79840173927261
 31
0.0
  0
LINE
  5
6DB
  8
0
  6
CONTINUOUS
 10
503.96049154856911
 20
135.53654247744851
 30
0.0
 11
503.8793992379521
 21
134.79840173927261
 31
0.0
  0
LINE
  5
6DC
  8
0
  6
CONTINUOUS
 10
502.8793992379521
 20
134.79840173927261
 30
0.0
 11
502.80545780201197
 21
134.58130152216211
 31
0.0
  0
LINE
  5
6DD
  8
0
  6
CONTINUOUS
 10
503.8793992379521
 20
134.79840173927261
 30
0.0
 11
503.85554855835892
 21
134.58130152216211
 31
0.0
  0
LINE
  5
6DE
  8
0
  6
CONTINUOUS
 10
502.80545780201197
 20
134.58130152216211
 30
0.0
 11
502.63999051953698
 21
134.0954713175787
 31
0.0
  0
LINE
  5
6DF
  8
0
  6
CONTINUOUS
 10
503.85554855835892
 20
134.58130152216211
 30
0.0
 11
503.69008127588393
 21
134.0954713175787
 31
0.0
  0
LINE
  5
6E0
  8
0
  6
CONTINUOUS
 10
502.63999051953698
 20
134.0954713175787
 30
0.0
 11
502.38181331911119
 21
133.67162685879339
 31
0.0
  0
LINE
  5
6E1
  8
0
  6
CONTINUOUS
 10
503.69008127588393
 20
134.0954713175787
 30
0.0
 11
503.54572551099812
 21
133.67162685879339
 31
0.0
  0
LINE
  5
6E2
  8
0
  6
CONTINUOUS
 10
502.38181331911119
 20
133.67162685879339
 30
0.0
 11
502.25368551459309
 21
133.46128194889511
 31
0.0
  0
LINE
  5
6E3
  8
0
  6
CONTINUOUS
 10
503.54572551099812
 20
133.67162685879339
 30
0.0
 11
503.41759770648002
 21
133.46128194889511
 31
0.0
  0
LINE
  5
6E4
  8
0
  6
CONTINUOUS
 10
502.25368551459309
 20
133.46128194889511
 30
0.0
 11
501.73891149691713
 21
132.9260853280895
 31
0.0
  0
LINE
  5
6E5
  8
0
  6
CONTINUOUS
 10
503.41759770648002
 20
133.46128194889511
 30
0.0
 11
503.09159234679458
 21
132.9260853280895
 31
0.0
  0
LINE
  5
6E6
  8
0
  6
CONTINUOUS
 10
501.73891149691713
 20
132.9260853280895
 30
0.0
 11
501.62566043104169
 21
132.85091120520289
 31
0.0
  0
LINE
  5
6E7
  8
0
  6
CONTINUOUS
 10
503.09159234679458
 20
132.9260853280895
 30
0.0
 11
503.04580138695297
 21
132.85091120520289
 31
0.0
  0
LINE
  5
6E8
  8
0
  6
CONTINUOUS
 10
401.11461348041541
 20
141.44169360472401
 30
0.0
 11
407.47275784663452
 21
132.812783393427
 31
0.0
  0
LINE
  5
6E9
  8
0
  6
CONTINUOUS
 10
402.3567633458054
 20
141.44169360472401
 30
0.0
 11
408.71490771202463
 21
132.812783393427
 31
0.0
  0
LINE
  5
6EA
  8
0
  6
CONTINUOUS
 10
264.87246361502361
 20
141.44169360472401
 30
0.0
 11
258.51431924880569
 21
132.812783393427
 31
0.0
  0
LINE
  5
6EB
  8
0
  6
CONTINUOUS
 10
266.11461348041291
 20
141.44169360472401
 30
0.0
 11
259.75646911419472
 21
132.812783393427
 31
0.0
  0
LINE
  5
6EC
  8
0
  6
CONTINUOUS
 10
157.1146134804153
 20
141.44169360472401
 30
0.0
 11
163.47275784663421
 21
132.812783393427
 31
0.0
  0
LINE
  5
6ED
  8
0
  6
CONTINUOUS
 10
158.35676334580529
 20
141.44169360472401
 30
0.0
 11
164.7149077120242
 21
132.812783393427
 31
0.0
  0
LINE
  5
6EE
  8
0
  6
CONTINUOUS
 10
20.872463615023388
 20
141.44169360472401
 30
0.0
 11
14.51431924880532
 21
132.812783393427
 31
0.0
  0
LINE
  5
6EF
  8
0
  6
CONTINUOUS
 10
22.114613480412579
 20
141.44169360472401
 30
0.0
 11
15.75646911419452
 21
132.812783393427
 31
0.0
  0
LINE
  5
6F0
  8
0
  6
CONTINUOUS
 10
-86.885386519584983
 20
141.44169360472401
 30
0.0
 11
-80.527242153366146
 21
132.812783393427
 31
0.0
  0
LINE
  5
6F1
  8
0
  6
CONTINUOUS
 10
-85.64323665419488
 20
141.44169360472401
 30
0.0
 11
-79.285092287976056
 21
132.812783393427
 31
0.0
  0
LINE
  5
6F2
  8
0
  6
CONTINUOUS
 10
501.62566043104169
 20
132.85091120520289
 30
0.0
 11
501.1202238868259
 21
132.5154110614065
 31
0.0
  0
LINE
  5
6F3
  8
0
  6
CONTINUOUS
 10
503.04580138695297
 20
132.85091120520289
 30
0.0
 11
502.72310361525751
 21
132.5154110614065
 31
0.0
  0
LINE
  5
6F4
  8
0
  6
CONTINUOUS
 10
501.1202238868259
 20
132.5154110614065
 30
0.0
 11
500.42713492423371
 21
132.24884886954999
 31
0.0
  0
LINE
  5
6F5
  8
0
  6
CONTINUOUS
 10
502.72310361525751
 20
132.5154110614065
 30
0.0
 11
502.46671318764987
 21
132.24884886954999
 31
0.0
  0
LINE
  5
6F6
  8
0
  6
CONTINUOUS
 10
500.42713492423371
 20
132.24884886954999
 30
0.0
 11
500.0091679320725
 21
132.1583038135721
 31
0.0
  0
LINE
  5
6F7
  8
0
  6
CONTINUOUS
 10
502.46671318764987
 20
132.24884886954999
 30
0.0
 11
502.37962324643121
 21
132.1583038135721
 31
0.0
  0
LINE
  5
6F8
  8
0
  6
CONTINUOUS
 10
407.47275784663452
 20
132.812783393427
 30
0.0
 11
408.1146134804149
 21
131.941693604725
 31
0.0
  0
LINE
  5
6F9
  8
0
  6
CONTINUOUS
 10
408.71490771202463
 20
132.812783393427
 30
0.0
 11
412.50981138134023
 21
131.941693604725
 31
0.0
  0
LINE
  5
6FA
  8
0
  6
CONTINUOUS
 10
258.51431924880387
 20
132.812783393427
 30
0.0
 11
254.7009722928193
 21
131.941693604725
 31
0.0
  0
LINE
  5
6FB
  8
0
  6
CONTINUOUS
 10
259.75646911419472
 20
132.812783393427
 30
0.0
 11
259.11461348041439
 21
131.941693604725
 31
0.0
  0
LINE
  5
6FC
  8
0
  6
CONTINUOUS
 10
163.47275784663421
 20
132.812783393427
 30
0.0
 11
164.1146134804147
 21
131.941693604725
 31
0.0
  0
LINE
  5
6FD
  8
0
  6
CONTINUOUS
 10
164.71490771202531
 20
132.812783393427
 30
0.0
 11
168.52825466800979
 21
131.941693604725
 31
0.0
  0
LINE
  5
6FE
  8
0
  6
CONTINUOUS
 10
14.514319248800151
 20
132.812783393427
 30
0.0
 11
10.700972292815541
 21
131.941693604725
 31
0.0
  0
LINE
  5
6FF
  8
0
  6
CONTINUOUS
 10
15.75646911419452
 20
132.812783393427
 30
0.0
 11
15.11461348041416
 21
131.941693604725
 31
0.0
  0
LINE
  5
700
  8
0
  6
CONTINUOUS
 10
-80.527242153366146
 20
132.812783393427
 30
0.0
 11
-79.885386519585722
 21
131.941693604725
 31
0.0
  0
LINE
  5
701
  8
0
  6
CONTINUOUS
 10
-79.285092287971807
 20
132.812783393427
 30
0.0
 11
-75.471745331987023
 21
131.941693604725
 31
0.0
  0
LINE
  5
702
  8
0
  6
CONTINUOUS
 10
500.0091679320725
 20
132.1583038135721
 30
0.0
 11
497.55588016065531
 21
131.6268429978648
 31
0.0
  0
LINE
  5
703
  8
0
  6
CONTINUOUS
 10
502.37962324643121
 20
132.1583038135721
 30
0.0
 11
501.57896869219547
 21
131.6268429978648
 31
0.0
  0
LINE
  5
704
  8
0
  6
CONTINUOUS
 10
497.55588016065531
 20
131.6268429978648
 30
0.0
 11
495.96348974650448
 21
131.28188016134419
 31
0.0
  0
LINE
  5
705
  8
0
  6
CONTINUOUS
 10
501.57896869219547
 20
131.6268429978648
 30
0.0
 11
500.68203003472189
 21
131.28188016134419
 31
0.0
  0
LINE
  5
706
  8
0
  6
CONTINUOUS
 10
408.1146134804149
 20
131.941693604725
 30
0.0
 11
419.35295456354351
 21
129.34083700476981
 31
0.0
  0
LINE
  5
707
  8
0
  6
CONTINUOUS
 10
412.50981138134023
 20
131.941693604725
 30
0.0
 11
423.84044615923187
 21
129.34083700476981
 31
0.0
  0
LINE
  5
708
  8
0
  6
CONTINUOUS
 10
254.7009722928193
 20
131.941693604725
 30
0.0
 11
243.0300649690486
 21
129.2756869937426
 31
0.0
  0
LINE
  5
709
  8
0
  6
CONTINUOUS
 10
259.11461348041331
 20
131.941693604725
 30
0.0
 11
247.53026904949189
 21
129.2756869937426
 31
0.0
  0
LINE
  5
70A
  8
0
  6
CONTINUOUS
 10
164.1146134804157
 20
131.941693604725
 30
0.0
 11
175.69895791133709
 21
129.2756869937426
 31
0.0
  0
LINE
  5
70B
  8
0
  6
CONTINUOUS
 10
168.52825466800979
 20
131.941693604725
 30
0.0
 11
180.1991619917805
 21
129.2756869937426
 31
0.0
  0
LINE
  5
70C
  8
0
  6
CONTINUOUS
 10
10.700972292815541
 20
131.941693604725
 30
0.0
 11
-0.9699350309553783
 21
129.2756869937426
 31
0.0
  0
LINE
  5
70D
  8
0
  6
CONTINUOUS
 10
15.11461348041027
 20
131.941693604725
 30
0.0
 11
3.530269049488207
 21
129.2756869937426
 31
0.0
  0
LINE
  5
70E
  8
0
  6
CONTINUOUS
 10
-79.885386519581829
 20
131.941693604725
 30
0.0
 11
-68.301042088659813
 21
129.2756869937426
 31
0.0
  0
LINE
  5
70F
  8
0
  6
CONTINUOUS
 10
-75.471745331987023
 20
131.941693604725
 30
0.0
 11
-63.800838008215621
 21
129.2756869937426
 31
0.0
  0
LINE
  5
710
  8
0
  6
CONTINUOUS
 10
495.96348974650448
 20
131.28188016134419
 30
0.0
 11
485.26004413457122
 21
128.96317054966599
 31
0.0
  0
LINE
  5
711
  8
0
  6
CONTINUOUS
 10
500.68203003472189
 20
131.28188016134419
 30
0.0
 11
489.96989541312848
 21
128.96317054966599
 31
0.0
  0
LINE
  5
712
  8
0
  6
CONTINUOUS
 10
419.35295456354351
 20
129.34083700476981
 30
0.0
 11
423.37671195357598
 21
128.40963053158359
 31
0.0
  0
LINE
  5
713
  8
0
  6
CONTINUOUS
 10
423.84044615923187
 20
129.34083700476981
 30
0.0
 11
430.53667259918359
 21
128.40963053158359
 31
0.0
  0
LINE
  5
714
  8
0
  6
CONTINUOUS
 10
243.0300649690472
 20
129.2756869937426
 30
0.0
 11
236.09585814208779
 21
128.3330646645957
 31
0.0
  0
LINE
  5
715
  8
0
  6
CONTINUOUS
 10
247.53026904949189
 20
129.2756869937426
 30
0.0
 11
243.4343820835212
 21
128.3330646645957
 31
0.0
  0
LINE
  5
716
  8
0
  6
CONTINUOUS
 10
175.69895791133709
 20
129.2756869937426
 30
0.0
 11
179.7948448773077
 21
128.3330646645957
 31
0.0
  0
LINE
  5
717
  8
0
  6
CONTINUOUS
 10
180.1991619917805
 20
129.2756869937426
 30
0.0
 11
187.13336881874079
 21
128.3330646645957
 31
0.0
  0
LINE
  5
718
  8
0
  6
CONTINUOUS
 10
-0.9699350309596132
 20
129.2756869937426
 30
0.0
 11
-7.904141857919087
 21
128.3330646645957
 31
0.0
  0
LINE
  5
719
  8
0
  6
CONTINUOUS
 10
3.530269049488207
 20
129.2756869937426
 30
0.0
 11
-0.5656179164827062
 21
128.3330646645957
 31
0.0
  0
LINE
  5
71A
  8
0
  6
CONTINUOUS
 10
-68.301042088659813
 20
129.2756869937426
 30
0.0
 11
-64.205155122688907
 21
128.3330646645957
 31
0.0
  0
LINE
  5
71B
  8
0
  6
CONTINUOUS
 10
-63.800838008212409
 20
129.2756869937426
 30
0.0
 11
-56.866631181252238
 21
128.3330646645957
 31
0.0
  0
LINE
  5
71C
  8
0
  6
CONTINUOUS
 10
485.26004413457122
 20
128.96317054966599
 30
0.0
 11
477.39410172352819
 21
127.9677390592875
 31
0.0
  0
LINE
  5
71D
  8
0
  6
CONTINUOUS
 10
489.96989541312848
 20
128.96317054966599
 30
0.0
 11
485.37113234344417
 21
127.9677390592875
 31
0.0
  0
LINE
  5
71E
  8
0
  6
CONTINUOUS
 10
423.37671195357598
 20
128.40963053158359
 30
0.0
 11
431.84233052119743
 21
127.21968265531289
 31
0.0
  0
LINE
  5
71F
  8
0
  6
CONTINUOUS
 10
430.53667259918359
 20
128.40963053158359
 30
0.0
 11
439.09348643230101
 21
127.21968265531289
 31
0.0
  0
LINE
  5
720
  8
0
  6
CONTINUOUS
 10
236.09585814208779
 20
128.3330646645957
 30
0.0
 11
227.41811270954389
 21
127.15342915393209
 31
0.0
  0
LINE
  5
721
  8
0
  6
CONTINUOUS
 10
243.4343820835212
 20
128.3330646645957
 30
0.0
 11
234.8199554219988
 21
127.15342915393209
 31
0.0
  0
LINE
  5
722
  8
0
  6
CONTINUOUS
 10
179.7948448773077
 20
128.3330646645957
 30
0.0
 11
188.40927153883021
 21
127.15342915393209
 31
0.0
  0
LINE
  5
723
  8
0
  6
CONTINUOUS
 10
187.13336881874079
 20
128.3330646645957
 30
0.0
 11
195.81111425128569
 21
127.15342915393209
 31
0.0
  0
LINE
  5
724
  8
0
  6
CONTINUOUS
 10
-7.904141857919087
 20
128.3330646645957
 30
0.0
 11
-16.58188729046293
 21
127.15342915393209
 31
0.0
  0
LINE
  5
725
  8
0
  6
CONTINUOUS
 10
-0.5656179164854788
 20
128.3330646645957
 30
0.0
 11
-9.1800445780080189
 21
127.15342915393209
 31
0.0
  0
LINE
  5
726
  8
0
  6
CONTINUOUS
 10
-64.205155122686136
 20
128.3330646645957
 30
0.0
 11
-55.590728461163557
 21
127.15342915393209
 31
0.0
  0
LINE
  5
727
  8
0
  6
CONTINUOUS
 10
-56.866631181252238
 20
128.3330646645957
 30
0.0
 11
-48.18888574870752
 21
127.15342915393209
 31
0.0
  0
LINE
  5
728
  8
0
  6
CONTINUOUS
 10
477.39410172352819
 20
127.9677390592875
 30
0.0
 11
469.98207245602839
 21
127.0297500739984
 31
0.0
  0
LINE
  5
729
  8
0
  6
CONTINUOUS
 10
485.37113234344417
 20
127.9677390592875
 30
0.0
 11
477.92992019397059
 21
127.0297500739984
 31
0.0
  0
LINE
  5
72A
  8
0
  6
CONTINUOUS
 10
431.84233052119743
 20
127.21968265531289
 30
0.0
 11
433.1935634777289
 21
127.0297500739984
 31
0.0
  0
LINE
  5
72B
  8
0
  6
CONTINUOUS
 10
439.09348643230101
 20
127.21968265531289
 30
0.0
 11
442.89843749991547
 21
127.0297500739984
 31
0.0
  0
LINE
  5
72C
  8
0
  6
CONTINUOUS
 10
477.92992019397059
 20
127.0297500739984
 30
0.0
 11
473.32237398582771
 21
126.4489538938016
 31
0.0
  0
LINE
  5
72D
  8
0
  6
CONTINUOUS
 10
433.1935634777289
 20
127.0297500739984
 30
0.0
 11
437.32550826718222
 21
126.4489538938016
 31
0.0
  0
LINE
  5
72E
  8
0
  6
CONTINUOUS
 10
-16.581887290479969
 20
127.15342915393209
 30
0.0
 11
-32.319618147073861
 21
126.4489538938016
 31
0.0
  0
LINE
  5
72F
  8
0
  6
CONTINUOUS
 10
-9.1800445780080189
 20
127.15342915393209
 30
0.0
 11
-14.324557784325989
 21
126.4489538938016
 31
0.0
  0
LINE
  5
730
  8
0
  6
CONTINUOUS
 10
-55.590728461163557
 20
127.15342915393209
 30
0.0
 11
-50.446215254845583
 21
126.4489538938016
 31
0.0
  0
LINE
  5
731
  8
0
  6
CONTINUOUS
 10
-48.1888857486924
 20
127.15342915393209
 30
0.0
 11
-32.451154892095559
 21
126.4489538938016
 31
0.0
  0
LINE
  5
732
  8
0
  6
CONTINUOUS
 10
227.41811270954099
 20
127.15342915393209
 30
0.0
 11
211.61461348041561
 21
126.44600987399529
 31
0.0
  0
LINE
  5
733
  8
0
  6
CONTINUOUS
 10
234.8199554219988
 20
127.15342915393209
 30
0.0
 11
229.6539431657778
 21
126.44600987399529
 31
0.0
  0
LINE
  5
734
  8
0
  6
CONTINUOUS
 10
188.40927153883021
 20
127.15342915393209
 30
0.0
 11
193.57528379505129
 21
126.44600987399529
 31
0.0
  0
LINE
  5
735
  8
0
  6
CONTINUOUS
 10
195.81111425128569
 20
127.15342915393209
 30
0.0
 11
211.61461348041561
 21
126.44600987399529
 31
0.0
  0
LINE
  5
736
  8
0
  6
CONTINUOUS
 10
-14.324557784325989
 20
126.4489538938016
 30
0.0
 11
-14.34605683422922
 21
126.44600987399529
 31
0.0
  0
LINE
  5
737
  8
0
  6
CONTINUOUS
 10
-50.446215254845583
 20
126.4489538938016
 30
0.0
 11
-50.424716204942349
 21
126.44600987399529
 31
0.0
  0
LINE
  5
738
  8
0
  6
CONTINUOUS
 10
437.32550826718222
 20
126.4489538938016
 30
0.0
 11
438.76977427907332
 21
126.2459443606066
 31
0.0
  0
LINE
  5
739
  8
0
  6
CONTINUOUS
 10
473.32237398582771
 20
126.4489538938016
 30
0.0
 11
471.71186786202259
 21
126.2459443606066
 31
0.0
  0
LINE
  5
73A
  8
0
  6
CONTINUOUS
 10
193.57528379505129
 20
126.44600987399529
 30
0.0
 11
195.60630650543541
 21
126.1678873005181
 31
0.0
  0
LINE
  5
73B
  8
0
  6
CONTINUOUS
 10
229.6539431657778
 20
126.44600987399529
 30
0.0
 11
227.6229204553936
 21
126.1678873005181
 31
0.0
  0
LINE
  5
73C
  8
0
  6
CONTINUOUS
 10
-50.424716204942349
 20
126.44600987399529
 30
0.0
 11
-48.393693494558178
 21
126.1678873005181
 31
0.0
  0
LINE
  5
73D
  8
0
  6
CONTINUOUS
 10
-14.34605683422922
 20
126.44600987399529
 30
0.0
 11
-16.37707954461338
 21
126.1678873005181
 31
0.0
  0
LINE
  5
73E
  8
0
  6
CONTINUOUS
 10
469.94879048707691
 20
126.0237027251456
 30
0.0
 11
454.35440246126348
 21
125.4502031253563
 31
0.0
  0
LINE
  5
73F
  8
0
  6
CONTINUOUS
 10
454.35440246126348
 20
125.4502031253563
 30
0.0
 11
443.12238678905919
 21
126.0237027251456
 31
0.0
  0
LINE
  5
740
  8
0
  6
CONTINUOUS
 10
438.76977427907332
 20
126.2459443606066
 30
0.0
 11
443.12238678905919
 21
126.0237027251456
 31
0.0
  0
LINE
  5
741
  8
0
  6
CONTINUOUS
 10
471.71186786202259
 20
126.2459443606066
 30
0.0
 11
469.94879048707691
 21
126.0237027251456
 31
0.0
  0
LINE
  5
742
  8
0
  6
CONTINUOUS
 10
-32.295741143929732
 20
125.4502031253563
 30
0.0
 11
-32.385386519606527
 21
125.4461615124922
 31
0.0
  0
LINE
  5
743
  8
0
  6
CONTINUOUS
 10
-32.385386519606527
 20
125.4461615124922
 30
0.0
 11
-32.475031895241727
 21
125.4502031253563
 31
0.0
  0
LINE
  5
744
  8
0
  6
CONTINUOUS
 10
211.7042588560914
 20
125.4502031253563
 30
0.0
 11
211.61461348041459
 21
125.4461615124922
 31
0.0
  0
LINE
  5
745
  8
0
  6
CONTINUOUS
 10
211.61461348041459
 20
125.4461615124922
 30
0.0
 11
211.5249681047377
 21
125.4502031253563
 31
0.0
  0
LINE
  5
746
  8
0
  6
CONTINUOUS
 10
195.60630650543541
 20
126.1678873005181
 30
0.0
 11
211.5249681047377
 21
125.4502031253563
 31
0.0
  0
LINE
  5
747
  8
0
  6
CONTINUOUS
 10
227.6229204553936
 20
126.1678873005181
 30
0.0
 11
211.7042588560914
 21
125.4502031253563
 31
0.0
  0
LINE
  5
748
  8
0
  6
CONTINUOUS
 10
-48.39369349454401
 20
126.1678873005181
 30
0.0
 11
-32.475031895241727
 21
125.4502031253563
 31
0.0
  0
LINE
  5
749
  8
0
  6
CONTINUOUS
 10
-16.377079544627549
 20
126.1678873005181
 30
0.0
 11
-32.295741143929732
 21
125.4502031253563
 31
0.0
  0
ENDBLK
  5
74B
  8
0
  0
BLOCK
  8
0
  2
*U32
 70
     1
 10
0.0
 20
0.0
 30
0.0
  3
*U32
  1

  0
SOLID
  5
74D
  8
0
  6
CONTINUOUS
 10
501.31943839852278
 20
182.67832363823669
 30
0.0
 11
500.73283882398169
 21
182.60852958406679
 31
0.0
 12
530.48633910536842
 22
182.60852958406679
 32
0.0
 13
530.48633910536842
 23
182.60852958406679
 33
0.0
210
0.0
220
0.0
230
1.0
  0
SOLID
  5
74E
  8
0
  6
CONTINUOUS
 10
-501.31943839852278
 20
182.67832363823669
 30
0.0
 11
-529.95620063137596
 21
182.67832363823669
 31
0.0
 12
-530.48633910536842
 22
182.60852958406679
 32
0.0
 13
-530.48633910536842
 23
182.60852958406679
 33
0.0
210
0.0
220
0.0
230
-1.0
  0
SOLID
  5
74F
  8
0
  6
CONTINUOUS
 10
500.73283882398169
 20
182.60852958406679
 30
0.0
 11
500.69135425742229
 21
182.59313820395741
 31
0.0
 12
530.60324824413215
 22
182.59313820395741
 32
0.0
 13
530.60324824413215
 23
182.59313820395741
 33
0.0
210
0.0
220
0.0
230
1.0
  0
SOLID
  5
750
  8
0
  6
CONTINUOUS
 10
-500.73283882398169
 20
182.60852958406679
 30
0.0
 11
-530.48633910536842
 21
182.60852958406679
 31
0.0
 12
-530.60324824413215
 22
182.59313820395741
 32
0.0
 13
-530.60324824413215
 23
182.59313820395741
 33
0.0
210
0.0
220
0.0
230
-1.0
  0
SOLID
  5
751
  8
0
  6
CONTINUOUS
 10
500.69135425742229
 20
182.59313820395741
 30
0.0
 11
500.17899217942602
 21
182.4030443895553
 31
0.0
 12
531.06217530898516
 22
182.4030443895553
 32
0.0
 13
531.06217530898516
 23
182.4030443895553
 33
0.0
210
0.0
220
0.0
230
1.0
  0
SOLID
  5
752
  8
0
  6
CONTINUOUS
 10
-500.69135425742229
 20
182.59313820395741
 30
0.0
 11
-530.60324824413215
 21
182.59313820395741
 31
0.0
 12
-531.06217530898516
 22
182.4030443895553
 32
0.0
 13
-531.06217530898516
 23
182.4030443895553
 33
0.0
210
0.0
220
0.0
230
-1.0
  0
SOLID
  5
753
  8
0
  6
CONTINUOUS
 10
500.17899217942602
 20
182.4030443895553
 30
0.0
 11
500.09029974455842
 21
182.34338714769589
 31
0.0
 12
531.20620063137585
 22
182.34338714769589
 32
0.0
 13
531.20620063137585
 23
182.34338714769589
 33
0.0
210
0.0
220
0.0
230
1.0
  0
SOLID
  5
754
  8
0
  6
CONTINUOUS
 10
-500.17899217942602
 20
182.4030443895553
 30
0.0
 11
-531.06217530898516
 21
182.4030443895553
 31
0.0
 12
-531.20620063137585
 22
182.34338714769589
 32
0.0
 13
-531.20620063137585
 23
182.34338714769589
 33
0.0
210
0.0
220
0.0
230
-1.0
  0
SOLID
  5
755
  8
0
  6
CONTINUOUS
 10
500.09029974455842
 20
182.34338714769589
 30
0.0
 11
499.68882262702499
 21
182.07334137053971
 31
0.0
 12
531.55813113999454
 22
182.07334137053971
 32
0.0
 13
531.55813113999454
 23
182.07334137053971
 33
0.0
210
0.0
220
0.0
230
1.0
  0
SOLID
  5
756
  8
0
  6
CONTINUOUS
 10
-500.09029974455842
 20
182.34338714769589
 30
0.0
 11
-531.20620063137585
 21
182.34338714769589
 31
0.0
 12
-531.55813113999454
 22
182.07334137053971
 32
0.0
 13
-531.55813113999454
 23
182.07334137053971
 33
0.0
210
0.0
220
0.0
230
-1.0
  0
SOLID
  5
757
  8
0
  6
CONTINUOUS
 10
499.68882262702499
 20
182.07334137053971
 30
0.0
 11
499.57220396022888
 21
181.94609059120111
 31
0.0
 12
531.72396758434229
 22
181.94609059120111
 32
0.0
 13
531.72396758434229
 23
181.94609059120111
 33
0.0
210
0.0
220
0.0
230
1.0
  0
SOLID
  5
758
  8
0
  6
CONTINUOUS
 10
-499.68882262702499
 20
182.07334137053971
 30
0.0
 11
-531.55813113999454
 21
182.07334137053971
 31
0.0
 12
-531.72396758434229
 22
181.94609059120111
 32
0.0
 13
-531.72396758434229
 23
181.94609059120111
 33
0.0
210
0.0
220
0.0
230
-1.0
  0
SOLID
  5
759
  8
0
  6
CONTINUOUS
 10
499.57220396022888
 20
181.94609059120111
 30
0.0
 11
499.3268095883509
 21
181.67832363823669
 31
0.0
 12
531.92943239384078
 22
181.67832363823669
 32
0.0
 13
531.92943239384078
 23
181.67832363823669
 33
0.0
210
0.0
220
0.0
230
1.0
  0
SOLID
  5
75A
  8
0
  6
CONTINUOUS
 10
-499.57220396022888
 20
181.94609059120111
 30
0.0
 11
-531.72396758434229
 21
181.94609059120111
 31
0.0
 12
-531.92943239384078
 22
181.67832363823669
 32
0.0
 13
-531.92943239384078
 23
181.67832363823669
 33
0.0
210
0.0
220
0.0
230
-1.0
  0
SOLID
  5
75B
  8
0
  6
CONTINUOUS
 10
499.3268095883509
 20
181.67832363823669
 30
0.0
 11
499.28969890301278
 21
181.63782957531521
 31
0.0
 12
500.97909708487208
 22
181.63782957531521
 32
0.0
 13
500.97909708487208
 23
181.63782957531521
 33
0.0
210
0.0
220
0.0
230
1.0
  0
SOLID
  5
75C
  8
0
  6
CONTINUOUS
 10
-499.3268095883509
 20
181.67832363823669
 30
0.0
 11
-501.31943839852278
 21
181.67832363823669
 31
0.0
 12
-500.97909708487208
 22
181.63782957531521
 32
0.0
 13
-500.97909708487208
 23
181.63782957531521
 33
0.0
210
0.0
220
0.0
230
-1.0
  0
SOLID
  5
75D
  8
0
  6
CONTINUOUS
 10
499.28969890301278
 20
181.63782957531521
 30
0.0
 11
499.28893474755893
 21
181.63644720573481
 31
0.0
 12
500.9674786537982
 22
181.63644720573481
 32
0.0
 13
500.9674786537982
 23
181.63644720573481
 33
0.0
  0
SOLID
  5
75E
  8
0
  6
CONTINUOUS
 10
-499.28969890301278
 20
181.63782957531521
 30
0.0
 11
-500.97909708487208
 21
181.63782957531521
 31
0.0
 12
-500.9674786537982
 22
181.63644720573481
 32
0.0
 13
-500.9674786537982
 23
181.63644720573481
 33
0.0
210
0.0
220
0.0
230
-1.0
  0
SOLID
  5
75F
  8
0
  6
CONTINUOUS
 10
501.31943839852278
 20
181.67832363823669
 30
0.0
 11
530.34442919902972
 21
181.6272123776684
 31
0.0
 12
531.96865144346452
 22
181.6272123776684
 32
0.0
 13
531.96865144346452
 23
181.6272123776684
 33
0.0
210
0.0
220
0.0
230
1.0
  0
SOLID
  5
760
  8
0
  6
CONTINUOUS
 10
-501.31943839852278
 20
181.67832363823669
 30
0.0
 11
-531.92943239384078
 21
181.67832363823669
 31
0.0
 12
-531.96865144346452
 22
181.6272123776684
 32
0.0
 13
-531.96865144346452
 23
181.6272123776684
 33
0.0
210
0.0
220
0.0
230
-1.0
  0
SOLID
  5
761
  8
0
  6
CONTINUOUS
 10
499.28893474755893
 20
181.63644720573481
 30
0.0
 11
499.22078106377268
 21
181.5131560890278
 31
0.0
 12
500.63517066706459
 22
181.5131560890278
 32
0.0
 13
500.63517066706459
 23
181.5131560890278
 33
0.0
210
0.0
220
0.0
230
1.0
  0
SOLID
  5
762
  8
0
  6
CONTINUOUS
 10
-499.28893474755893
 20
181.63644720573481
 30
0.0
 11
-500.9674786537982
 21
181.63644720573481
 31
0.0
 12
-500.63517066706459
 22
181.5131560890278
 32
0.0
 13
-500.63517066706459
 23
181.5131560890278
 33
0.0
210
0.0
220
0.0
230
-1.0
  0
SOLID
  5
763
  8
0
  6
CONTINUOUS
 10
530.34442919902972
 20
181.6272123776684
 30
0.0
 11
530.70620063137585
 21
181.47736174391139
 31
0.0
 12
532.08363587891199
 22
181.47736174391139
 32
0.0
 13
532.08363587891199
 23
181.47736174391139
 33
0.0
210
0.0
220
0.0
230
1.0
  0
SOLID
  5
764
  8
0
  6
CONTINUOUS
 10
-530.34442919902972
 20
181.6272123776684
 30
0.0
 11
-531.96865144346452
 21
181.6272123776684
 31
0.0
 12
-532.08363587891199
 22
181.47736174391139
 32
0.0
 13
-532.08363587891199
 23
181.47736174391139
 33
0.0
210
0.0
220
0.0
230
-1.0
  0
SOLID
  5
765
  8
0
  6
CONTINUOUS
 10
530.70620063137585
 20
181.47736174391139
 30
0.0
 11
530.77010833492977
 21
181.4283236382347
 31
0.0
 12
532.12126414083696
 22
181.4283236382347
 32
0.0
 13
532.12126414083696
 23
181.4283236382347
 33
0.0
210
0.0
220
0.0
230
1.0
  0
SOLID
  5
766
  8
0
  6
CONTINUOUS
 10
-530.70620063137585
 20
181.47736174391139
 30
0.0
 11
-532.08363587891199
 21
181.47736174391139
 31
0.0
 12
-532.12126414083696
 22
181.4283236382347
 32
0.0
 13
-532.12126414083696
 23
181.4283236382347
 33
0.0
210
0.0
220
0.0
230
-1.0
  0
SOLID
  5
767
  8
0
  6
CONTINUOUS
 10
499.22078106377268
 20
181.5131560890278
 30
0.0
 11
499.11142780669383
 21
181.3153342776184
 31
0.0
 12
500.34106893562421
 22
181.3153342776184
 32
0.0
 13
500.34106893562421
 23
181.3153342776184
 33
0.0
210
0.0
220
0.0
230
1.0
  0
SOLID
  5
768
  8
0
  6
CONTINUOUS
 10
-499.22078106377268
 20
181.5131560890278
 30
0.0
 11
-500.63517066706459
 21
181.5131560890278
 31
0.0
 12
-500.34106893562421
 22
181.3153342776184
 32
0.0
 13
-500.34106893562421
 23
181.3153342776184
 33
0.0
210
0.0
220
0.0
230
-1.0
  0
SOLID
  5
769
  8
0
  6
CONTINUOUS
 10
530.77010833492977
 20
181.4283236382347
 30
0.0
 11
531.01686080315574
 21
181.23898381001459
 31
0.0
 12
532.19969126558328
 22
181.23898381001459
 32
0.0
 13
532.19969126558328
 23
181.23898381001459
 33
0.0
  0
SOLID
  5
76A
  8
0
  6
CONTINUOUS
 10
-530.77010833492977
 20
181.4283236382347
 30
0.0
 11
-532.12126414083696
 21
181.4283236382347
 31
0.0
 12
-532.19969126558328
 22
181.23898381001459
 32
0.0
 13
-532.19969126558328
 23
181.23898381001459
 33
0.0
210
0.0
220
0.0
230
-1.0
  0
SOLID
  5
76B
  8
0
  6
CONTINUOUS
 10
499.11142780669383
 20
181.3153342776184
 30
0.0
 11
499.00390617764077
 21
181.12082591094381
 31
0.0
 12
500.1628122167246
 22
181.12082591094381
 32
0.0
 13
500.1628122167246
 23
181.12082591094381
 33
0.0
210
0.0
220
0.0
230
1.0
  0
SOLID
  5
76C
  8
0
  6
CONTINUOUS
 10
-499.11142780669383
 20
181.3153342776184
 30
0.0
 11
-500.34106893562421
 21
181.3153342776184
 31
0.0
 12
-500.1628122167246
 22
181.12082591094381
 32
0.0
 13
-500.1628122167246
 23
181.12082591094381
 33
0.0
210
0.0
220
0.0
230
-1.0
  0
SOLID
  5
76D
  8
0
  6
CONTINUOUS
 10
499.00390617764077
 20
181.12082591094381
 30
0.0
 11
498.98555335064412
 21
181.05402720048369
 31
0.0
 12
500.1015947012167
 22
181.05402720048369
 32
0.0
 13
500.1015947012167
 23
181.05402720048369
 33
0.0
  0
SOLID
  5
76E
  8
0
  6
CONTINUOUS
 10
-499.00390617764077
 20
181.12082591094381
 30
0.0
 11
-500.1628122167246
 21
181.12082591094381
 31
0.0
 12
-500.1015947012167
 22
181.05402720048369
 32
0.0
 13
-500.1015947012167
 23
181.05402720048369
 33
0.0
210
0.0
220
0.0
230
-1.0
  0
SOLID
  5
76F
  8
0
  6
CONTINUOUS
 10
531.01686080315574
 20
181.23898381001459
 30
0.0
 11
531.25523873705265
 21
180.9283236382347
 31
0.0
 12
532.32837092202362
 22
180.9283236382347
 32
0.0
 13
532.32837092202362
 23
180.9283236382347
 33
0.0
  0
SOLID
  5
770
  8
0
  6
CONTINUOUS
 10
-531.01686080315574
 20
181.23898381001459
 30
0.0
 11
-532.19969126558328
 21
181.23898381001459
 31
0.0
 12
-532.32837092202362
 22
180.9283236382347
 32
0.0
 13
-532.32837092202362
 23
180.9283236382347
 33
0.0
210
0.0
220
0.0
230
-1.0
  0
SOLID
  5
771
  8
0
  6
CONTINUOUS
 10
531.25523873705265
 20
180.9283236382347
 30
0.0
 11
531.29788301212773
 21
180.825371250991
 31
0.0
 12
532.3710151970987
 22
180.825371250991
 32
0.0
 13
532.3710151970987
 23
180.825371250991
 33
0.0
210
0.0
220
0.0
230
1.0
  0
SOLID
  5
772
  8
0
  6
CONTINUOUS
 10
-531.25523873705265
 20
180.9283236382347
 30
0.0
 11
-532.32837092202362
 21
180.9283236382347
 31
0.0
 12
-532.3710151970987
 22
180.825371250991
 32
0.0
 13
-532.3710151970987
 23
180.825371250991
 33
0.0
210
0.0
220
0.0
230
-1.0
  0
SOLID
  5
773
  8
0
  6
CONTINUOUS
 10
498.98555335064412
 20
181.05402720048369
 30
0.0
 11
498.9003258478055
 21
180.7438250018609
 31
0.0
 12
499.93011906599338
 22
180.7438250018609
 32
0.0
 13
499.93011906599338
 23
180.7438250018609
 33
0.0
210
0.0
220
0.0
230
1.0
  0
SOLID
  5
774
  8
0
  6
CONTINUOUS
 10
-498.98555335064412
 20
181.05402720048369
 30
0.0
 11
-500.1015947012167
 21
181.05402720048369
 31
0.0
 12
-499.93011906599338
 22
180.7438250018609
 32
0.0
 13
-499.93011906599338
 23
180.7438250018609
 33
0.0
210
0.0
220
0.0
230
-1.0
  0
SOLID
  5
775
  8
0
  6
CONTINUOUS
 10
531.29788301212773
 20
180.825371250991
 30
0.0
 11
531.40508937080949
 21
180.5665522058886
 31
0.0
 12
532.40508937080961
 22
180.5665522058886
 32
0.0
 13
532.40508937080961
 23
180.5665522058886
 33
0.0
210
0.0
220
0.0
230
1.0
  0
SOLID
  5
776
  8
0
  6
CONTINUOUS
 10
-531.29788301212773
 20
180.825371250991
 30
0.0
 11
-532.3710151970987
 21
180.825371250991
 31
0.0
 12
-532.40508937080961
 22
180.5665522058886
 32
0.0
 13
-532.40508937080961
 23
180.5665522058886
 33
0.0
210
0.0
220
0.0
230
-1.0
  0
SOLID
  5
777
  8
0
  6
CONTINUOUS
 10
498.9003258478055
 20
180.7438250018609
 30
0.0
 11
498.8474017572737
 21
180.55119740283121
 31
0.0
 12
499.90070713124197
 22
180.55119740283121
 32
0.0
 13
499.90070713124197
 23
180.55119740283121
 33
0.0
210
0.0
220
0.0
230
1.0
  0
SOLID
  5
778
  8
0
  6
CONTINUOUS
 10
-498.9003258478055
 20
180.7438250018609
 30
0.0
 11
-499.93011906599338
 21
180.7438250018609
 31
0.0
 12
-499.90070713124197
 22
180.55119740283121
 32
0.0
 13
-499.90070713124197
 23
180.55119740283121
 33
0.0
210
0.0
220
0.0
230
-1.0
  0
SOLID
  5
779
  8
0
  6
CONTINUOUS
 10
531.40508937080949
 20
180.5665522058886
 30
0.0
 11
531.45620063137585
 21
180.1783236382347
 31
0.0
 12
532.45620063137608
 22
180.1783236382347
 32
0.0
 13
532.45620063137608
 23
180.1783236382347
 33
0.0
210
0.0
220
0.0
230
1.0
  0
SOLID
  5
77A
  8
0
  6
CONTINUOUS
 10
-531.40508937080949
 20
180.5665522058886
 30
0.0
 11
-532.40508937080961
 21
180.5665522058886
 31
0.0
 12
-532.45620063137608
 22
180.1783236382347
 32
0.0
 13
-532.45620063137608
 23
180.1783236382347
 33
0.0
210
0.0
220
0.0
230
-1.0
  0
SOLID
  5
77B
  8
0
  6
CONTINUOUS
 10
-495.44861051561878
 20
158.01827263549259
 30
0.0
 11
-496.46019852108799
 21
158.01827263549259
 31
0.0
 12
-496.4374251721182
 22
157.86912312965481
 32
0.0
 13
-496.4374251721182
 23
157.86912312965481
 33
0.0
210
0.0
220
0.0
230
-1.0
  0
SOLID
  5
77C
  8
0
  6
CONTINUOUS
 10
498.8474017572737
 20
180.55119740283121
 30
0.0
 11
495.44861051561878
 21
158.01827263549259
 31
0.0
 12
496.46019852108799
 22
158.01827263549259
 32
0.0
 13
496.46019852108799
 23
158.01827263549259
 33
0.0
210
0.0
220
0.0
230
1.0
  0
SOLID
  5
77D
  8
0
  6
CONTINUOUS
 10
-498.8474017572737
 20
180.55119740283121
 30
0.0
 11
-499.90070713124197
 21
180.55119740283121
 31
0.0
 12
-496.46019852108799
 22
158.01827263549259
 32
0.0
 13
-496.46019852108799
 23
158.01827263549259
 33
0.0
210
0.0
220
0.0
230
-1.0
  0
SOLID
  5
77E
  8
0
  6
CONTINUOUS
 10
531.45620063137585
 20
180.1783236382347
 30
0.0
 11
531.42523947041582
 21
135.53422596886361
 31
0.0
 12
532.45620063137608
 22
135.53422596886361
 32
0.0
 13
532.45620063137608
 23
135.53422596886361
 33
0.0
  0
SOLID
  5
77F
  8
0
  6
CONTINUOUS
 10
-531.45620063137585
 20
180.1783236382347
 30
0.0
 11
-532.45620063137608
 21
180.1783236382347
 31
0.0
 12
-532.45620063137608
 22
135.53422596886361
 32
0.0
 13
-532.45620063137608
 23
135.53422596886361
 33
0.0
210
0.0
220
0.0
230
-1.0
  0
SOLID
  5
780
  8
0
  6
CONTINUOUS
 10
531.42523947041582
 20
135.53422596886361
 30
0.0
 11
531.42502849639948
 21
135.2300143600703
 31
0.0
 12
532.4250284964005
 22
135.2300143600703
 32
0.0
 13
532.4250284964005
 23
135.2300143600703
 33
0.0
210
0.0
220
0.0
230
1.0
  0
SOLID
  5
781
  8
0
  6
CONTINUOUS
 10
-531.42523947041582
 20
135.53422596886361
 30
0.0
 11
-532.45620063137608
 21
135.53422596886361
 31
0.0
 12
-532.4250284964005
 22
135.2300143600703
 32
0.0
 13
-532.4250284964005
 23
135.2300143600703
 33
0.0
210
0.0
220
0.0
230
-1.0
  0
SOLID
  5
782
  8
0
  6
CONTINUOUS
 10
531.42502849639948
 20
135.2300143600703
 30
0.0
 11
531.36088184408891
 21
135.02720662087501
 31
0.0
 12
532.40424707308341
 22
135.02720662087501
 32
0.0
 13
532.40424707308341
 23
135.02720662087501
 33
0.0
210
0.0
220
0.0
230
1.0
  0
SOLID
  5
783
  8
0
  6
CONTINUOUS
 10
-531.42502849639948
 20
135.2300143600703
 30
0.0
 11
-532.4250284964005
 21
135.2300143600703
 31
0.0
 12
-532.40424707308341
 22
135.02720662087501
 32
0.0
 13
-532.40424707308341
 23
135.02720662087501
 33
0.0
210
0.0
220
0.0
230
-1.0
  0
SOLID
  5
784
  8
0
  6
CONTINUOUS
 10
531.36088184408891
 20
135.02720662087501
 30
0.0
 11
531.33280769414148
 21
134.9384466517173
 31
0.0
 12
532.37617292313587
 22
134.9384466517173
 32
0.0
 13
532.37617292313587
 23
134.9384466517173
 33
0.0
210
0.0
220
0.0
230
1.0
  0
SOLID
  5
785
  8
0
  6
CONTINUOUS
 10
-531.36088184408891
 20
135.02720662087501
 30
0.0
 11
-532.40424707308341
 21
135.02720662087501
 31
0.0
 12
-532.37617292313587
 22
134.9384466517173
 32
0.0
 13
-532.37617292313587
 23
134.9384466517173
 33
0.0
210
0.0
220
0.0
230
-1.0
  0
SOLID
  5
786
  8
0
  6
CONTINUOUS
 10
531.33280769414148
 20
134.9384466517173
 30
0.0
 11
531.18337118366014
 21
134.67164122774969
 31
0.0
 12
532.29178425614634
 22
134.67164122774969
 32
0.0
 13
532.29178425614634
 23
134.67164122774969
 33
0.0
  0
SOLID
  5
787
  8
0
  6
CONTINUOUS
 10
-531.33280769414148
 20
134.9384466517173
 30
0.0
 11
-532.37617292313587
 21
134.9384466517173
 31
0.0
 12
-532.29178425614634
 22
134.67164122774969
 32
0.0
 13
-532.29178425614634
 23
134.67164122774969
 33
0.0
210
0.0
220
0.0
230
-1.0
  0
SOLID
  5
788
  8
0
  6
CONTINUOUS
 10
531.18337118366014
 20
134.67164122774969
 30
0.0
 11
531.07021579735942
 21
134.54126044028661
 31
0.0
 12
532.25054573598641
 22
134.54126044028661
 32
0.0
 13
532.25054573598641
 23
134.54126044028661
 33
0.0
210
0.0
220
0.0
230
1.0
  0
SOLID
  5
789
  8
0
  6
CONTINUOUS
 10
-531.18337118366014
 20
134.67164122774969
 30
0.0
 11
-532.29178425614634
 21
134.67164122774969
 31
0.0
 12
-532.25054573598641
 22
134.54126044028661
 32
0.0
 13
-532.25054573598641
 23
134.54126044028661
 33
0.0
210
0.0
220
0.0
230
-1.0
  0
SOLID
  5
78A
  8
0
  6
CONTINUOUS
 10
531.07021579735942
 20
134.54126044028661
 30
0.0
 11
530.98292997172177
 21
134.44068728108459
 31
0.0
 12
532.19421516468185
 22
134.44068728108459
 32
0.0
 13
532.19421516468185
 23
134.44068728108459
 33
0.0
210
0.0
220
0.0
230
1.0
  0
SOLID
  5
78B
  8
0
  6
CONTINUOUS
 10
-531.07021579735942
 20
134.54126044028661
 30
0.0
 11
-532.25054573598641
 21
134.54126044028661
 31
0.0
 12
-532.19421516468185
 22
134.44068728108459
 32
0.0
 13
-532.19421516468185
 23
134.44068728108459
 33
0.0
210
0.0
220
0.0
230
-1.0
  0
SOLID
  5
78C
  8
0
  6
CONTINUOUS
 10
530.98292997172177
 20
134.44068728108459
 30
0.0
 11
530.62938753591334
 21
134.09658473367401
 31
0.0
 12
532.00148488518425
 22
134.09658473367401
 32
0.0
 13
532.00148488518425
 23
134.09658473367401
 33
0.0
210
0.0
220
0.0
230
1.0
  0
SOLID
  5
78D
  8
0
  6
CONTINUOUS
 10
-530.98292997172177
 20
134.44068728108459
 30
0.0
 11
-532.19421516468185
 21
134.44068728108459
 31
0.0
 12
-532.00148488518425
 22
134.09658473367401
 32
0.0
 13
-532.00148488518425
 23
134.09658473367401
 33
0.0
210
0.0
220
0.0
230
-1.0
  0
SOLID
  5
78E
  8
0
  6
CONTINUOUS
 10
530.62938753591334
 20
134.09658473367401
 30
0.0
 11
528.91091637756415
 21
132.4239982395315
 31
0.0
 12
530.28301372683495
 22
132.4239982395315
 32
0.0
 13
530.28301372683495
 23
132.4239982395315
 33
0.0
210
0.0
220
0.0
230
1.0
  0
SOLID
  5
78F
  8
0
  6
CONTINUOUS
 10
-530.62938753591334
 20
134.09658473367401
 30
0.0
 11
-532.00148488518425
 21
134.09658473367401
 31
0.0
 12
-530.28301372683495
 22
132.4239982395315
 32
0.0
 13
-530.28301372683495
 23
132.4239982395315
 33
0.0
210
0.0
220
0.0
230
-1.0
  0
SOLID
  5
790
  8
0
  6
CONTINUOUS
 10
528.91091637756415
 20
132.4239982395315
 30
0.0
 11
528.71818609806644
 21
132.0798956921208
 31
0.0
 12
529.92947129102618
 22
132.0798956921208
 32
0.0
 13
529.92947129102618
 23
132.0798956921208
 33
0.0
210
0.0
220
0.0
230
1.0
  0
SOLID
  5
791
  8
0
  6
CONTINUOUS
 10
-528.91091637756415
 20
132.4239982395315
 30
0.0
 11
-530.28301372683495
 21
132.4239982395315
 31
0.0
 12
-529.92947129102618
 22
132.0798956921208
 32
0.0
 13
-529.92947129102618
 23
132.0798956921208
 33
0.0
210
0.0
220
0.0
230
-1.0
  0
SOLID
  5
792
  8
0
  6
CONTINUOUS
 10
528.71818609806644
 20
132.0798956921208
 30
0.0
 11
528.661855526762
 21
131.9793225329189
 31
0.0
 12
529.84218546538875
 22
131.9793225329189
 32
0.0
 13
529.84218546538875
 23
131.9793225329189
 33
0.0
210
0.0
220
0.0
230
1.0
  0
SOLID
  5
793
  8
0
  6
CONTINUOUS
 10
-528.71818609806644
 20
132.0798956921208
 30
0.0
 11
-529.92947129102618
 21
132.0798956921208
 31
0.0
 12
-529.84218546538875
 22
131.9793225329189
 32
0.0
 13
-529.84218546538875
 23
131.9793225329189
 33
0.0
210
0.0
220
0.0
230
-1.0
  0
SOLID
  5
794
  8
0
  6
CONTINUOUS
 10
528.661855526762
 20
131.9793225329189
 30
0.0
 11
528.62061700660195
 21
131.84894174545579
 31
0.0
 12
529.72903007908826
 22
131.84894174545579
 32
0.0
 13
529.72903007908826
 23
131.84894174545579
 33
0.0
210
0.0
220
0.0
230
1.0
  0
SOLID
  5
795
  8
0
  6
CONTINUOUS
 10
-528.661855526762
 20
131.9793225329189
 30
0.0
 11
-529.84218546538875
 21
131.9793225329189
 31
0.0
 12
-529.72903007908826
 22
131.84894174545579
 32
0.0
 13
-529.72903007908826
 23
131.84894174545579
 33
0.0
210
0.0
220
0.0
230
-1.0
  0
SOLID
  5
796
  8
0
  6
CONTINUOUS
 10
528.62061700660195
 20
131.84894174545579
 30
0.0
 11
528.53622833961242
 21
131.58213632148821
 31
0.0
 12
529.57959356860692
 22
131.58213632148821
 32
0.0
 13
529.57959356860692
 23
131.58213632148821
 33
0.0
210
0.0
220
0.0
230
1.0
  0
SOLID
  5
797
  8
0
  6
CONTINUOUS
 10
-528.62061700660195
 20
131.84894174545579
 30
0.0
 11
-529.72903007908826
 21
131.84894174545579
 31
0.0
 12
-529.57959356860692
 22
131.58213632148821
 32
0.0
 13
-529.57959356860692
 23
131.58213632148821
 33
0.0
210
0.0
220
0.0
230
-1.0
  0
SOLID
  5
798
  8
0
  6
CONTINUOUS
 10
528.53622833961242
 20
131.58213632148821
 30
0.0
 11
528.50815418966499
 21
131.49337635233061
 31
0.0
 12
529.55151941865938
 22
131.49337635233061
 32
0.0
 13
529.55151941865938
 23
131.49337635233061
 33
0.0
210
0.0
220
0.0
230
1.0
  0
SOLID
  5
799
  8
0
  6
CONTINUOUS
 10
-528.53622833961242
 20
131.58213632148821
 30
0.0
 11
-529.57959356860692
 21
131.58213632148821
 31
0.0
 12
-529.55151941865938
 22
131.49337635233061
 32
0.0
 13
-529.55151941865938
 23
131.49337635233061
 33
0.0
210
0.0
220
0.0
230
-1.0
  0
SOLID
  5
79A
  8
0
  6
CONTINUOUS
 10
528.50815418966499
 20
131.49337635233061
 30
0.0
 11
528.48737276634859
 21
131.29056861313509
 31
0.0
 12
529.48737276634859
 22
131.29056861313509
 32
0.0
 13
529.48737276634859
 23
131.29056861313509
 33
0.0
210
0.0
220
0.0
230
1.0
  0
SOLID
  5
79B
  8
0
  6
CONTINUOUS
 10
-528.50815418966499
 20
131.49337635233061
 30
0.0
 11
-529.55151941865938
 21
131.49337635233061
 31
0.0
 12
-529.48737276634859
 22
131.29056861313509
 32
0.0
 13
-529.48737276634859
 23
131.29056861313509
 33
0.0
210
0.0
220
0.0
230
-1.0
  0
SOLID
  5
79C
  8
0
  6
CONTINUOUS
 10
528.48737276634859
 20
131.29056861313509
 30
0.0
 11
528.45620063137414
 21
130.98635700434201
 31
0.0
 12
529.48712318741457
 22
130.98635700434201
 32
0.0
 13
529.48712318741457
 23
130.98635700434201
 33
0.0
  0
SOLID
  5
79D
  8
0
  6
CONTINUOUS
 10
-528.48737276634859
 20
131.29056861313509
 30
0.0
 11
-529.48737276634859
 21
131.29056861313509
 31
0.0
 12
-529.48712318741457
 22
130.98635700434201
 32
0.0
 13
-529.48712318741457
 23
130.98635700434201
 33
0.0
210
0.0
220
0.0
230
-1.0
  0
SOLID
  5
79E
  8
0
  6
CONTINUOUS
 10
528.45620063137414
 20
130.98635700434201
 30
0.0
 11
528.45620063137414
 21
93.294872524741464
 31
0.0
 12
529.45620063137414
 22
93.294872524741464
 32
0.0
 13
529.45620063137414
 23
93.294872524741464
 33
0.0
210
0.0
220
0.0
230
1.0
  0
SOLID
  5
79F
  8
0
  6
CONTINUOUS
 10
-528.45620063137414
 20
130.98635700434201
 30
0.0
 11
-529.48712318741457
 21
130.98635700434201
 31
0.0
 12
-529.45620063137414
 22
93.294872524741464
 32
0.0
 13
-529.45620063137414
 23
93.294872524741464
 33
0.0
210
0.0
220
0.0
230
-1.0
  0
SOLID
  5
7A0
  8
0
  6
CONTINUOUS
 10
528.45620063137414
 20
93.294872524741464
 30
0.0
 11
528.50731189194062
 21
92.906643957087994
 31
0.0
 12
529.50731189194028
 22
92.906643957087994
 32
0.0
 13
529.50731189194028
 23
92.906643957087994
 33
0.0
210
0.0
220
0.0
230
1.0
  0
SOLID
  5
7A1
  8
0
  6
CONTINUOUS
 10
-528.45620063137414
 20
93.294872524741464
 30
0.0
 11
-529.45620063137414
 21
93.294872524741464
 31
0.0
 12
-529.50731189194028
 22
92.906643957087994
 32
0.0
 13
-529.50731189194028
 23
92.906643957087994
 33
0.0
210
0.0
220
0.0
230
-1.0
  0
SOLID
  5
7A2
  8
0
  6
CONTINUOUS
 10
528.50731189194062
 20
92.906643957087994
 30
0.0
 11
528.54138606565152
 21
92.647824911985637
 31
0.0
 12
529.61451825062215
 22
92.647824911985637
 32
0.0
 13
529.61451825062215
 23
92.647824911985637
 33
0.0
210
0.0
220
0.0
230
1.0
  0
SOLID
  5
7A3
  8
0
  6
CONTINUOUS
 10
-528.50731189194062
 20
92.906643957087994
 30
0.0
 11
-529.50731189194028
 21
92.906643957087994
 31
0.0
 12
-529.61451825062215
 22
92.647824911985637
 32
0.0
 13
-529.61451825062215
 23
92.647824911985637
 33
0.0
210
0.0
220
0.0
230
-1.0
  0
SOLID
  5
7A4
  8
0
  6
CONTINUOUS
 10
528.54138606565152
 20
92.647824911985637
 30
0.0
 11
528.58403034072637
 21
92.544872524741905
 31
0.0
 12
529.65716252569723
 22
92.544872524741905
 32
0.0
 13
529.65716252569723
 23
92.544872524741905
 33
0.0
  0
SOLID
  5
7A5
  8
0
  6
CONTINUOUS
 10
-528.54138606565152
 20
92.647824911985637
 30
0.0
 11
-529.61451825062215
 21
92.647824911985637
 31
0.0
 12
-529.65716252569723
 22
92.544872524741905
 32
0.0
 13
-529.65716252569723
 23
92.544872524741905
 33
0.0
210
0.0
220
0.0
230
-1.0
  0
SOLID
  5
7A6
  8
0
  6
CONTINUOUS
 10
528.58403034072637
 20
92.544872524741905
 30
0.0
 11
528.79113712191236
 21
92.044872524742345
 31
0.0
 12
530.14026694644599
 22
92.044872524742345
 32
0.0
 13
530.14026694644599
 23
92.044872524742345
 33
0.0
210
0.0
220
0.0
230
1.0
  0
SOLID
  5
7A7
  8
0
  6
CONTINUOUS
 10
-528.58403034072637
 20
92.544872524741905
 30
0.0
 11
-529.65716252569723
 21
92.544872524741905
 31
0.0
 12
-530.14026694644599
 22
92.044872524742345
 32
0.0
 13
-530.14026694644599
 23
92.044872524742345
 33
0.0
210
0.0
220
0.0
230
-1.0
  0
SOLID
  5
7A8
  8
0
  6
CONTINUOUS
 10
528.79113712191236
 20
92.044872524742345
 30
0.0
 11
529.18843367840657
 21
91.527105571776204
 31
0.0
 12
530.64053795423752
 22
91.527105571776204
 32
0.0
 13
530.64053795423752
 23
91.527105571776204
 33
0.0
210
0.0
220
0.0
230
1.0
  0
SOLID
  5
7A9
  8
0
  6
CONTINUOUS
 10
-528.79113712191236
 20
92.044872524742345
 30
0.0
 11
-530.14026694644599
 21
92.044872524742345
 31
0.0
 12
-530.64053795423752
 22
91.527105571776204
 32
0.0
 13
-530.64053795423752
 23
91.527105571776204
 33
0.0
210
0.0
220
0.0
230
-1.0
  0
SOLID
  5
7AA
  8
0
  6
CONTINUOUS
 10
529.18843367840657
 20
91.527105571776204
 30
0.0
 11
530.27186330850896
 21
90.40578522821329
 31
0.0
 12
531.72396758433979
 22
90.40578522821329
 32
0.0
 13
531.72396758433979
 23
90.40578522821329
 33
0.0
210
0.0
220
0.0
230
1.0
  0
SOLID
  5
7AB
  8
0
  6
CONTINUOUS
 10
-529.18843367840657
 20
91.527105571776204
 30
0.0
 11
-530.64053795423752
 21
91.527105571776204
 31
0.0
 12
-531.72396758433979
 22
90.40578522821329
 32
0.0
 13
-531.72396758433979
 23
90.40578522821329
 33
0.0
210
0.0
220
0.0
230
-1.0
  0
SOLID
  5
7AC
  8
0
  6
CONTINUOUS
 10
530.27186330850896
 20
90.40578522821329
 30
0.0
 11
530.77213431630059
 21
89.888018275246992
 31
0.0
 12
532.12126414083377
 22
89.888018275246992
 32
0.0
 13
532.12126414083377
 23
89.888018275246992
 33
0.0
210
0.0
220
0.0
230
1.0
  0
SOLID
  5
7AD
  8
0
  6
CONTINUOUS
 10
-530.27186330850896
 20
90.40578522821329
 30
0.0
 11
-531.72396758433979
 21
90.40578522821329
 31
0.0
 12
-532.12126414083377
 22
89.888018275246992
 32
0.0
 13
-532.12126414083377
 23
89.888018275246992
 33
0.0
210
0.0
220
0.0
230
-1.0
  0
SOLID
  5
7AE
  8
0
  6
CONTINUOUS
 10
530.77213431630059
 20
89.888018275246992
 30
0.0
 11
531.25523873704924
 21
89.388018275247504
 31
0.0
 12
532.32837092201987
 22
89.388018275247504
 32
0.0
 13
532.32837092201987
 23
89.388018275247504
 33
0.0
210
0.0
220
0.0
230
1.0
  0
SOLID
  5
7AF
  8
0
  6
CONTINUOUS
 10
-530.77213431630059
 20
89.888018275246992
 30
0.0
 11
-532.12126414083377
 21
89.888018275246992
 31
0.0
 12
-532.32837092201987
 22
89.388018275247504
 32
0.0
 13
-532.32837092201987
 23
89.388018275247504
 33
0.0
210
0.0
220
0.0
230
-1.0
  0
SOLID
  5
7B0
  8
0
  6
CONTINUOUS
 10
531.25523873704924
 20
89.388018275247504
 30
0.0
 11
531.29788301212432
 21
89.285065888003629
 31
0.0
 12
532.37101519709495
 22
89.285065888003629
 32
0.0
 13
532.37101519709495
 23
89.285065888003629
 33
0.0
210
0.0
220
0.0
230
1.0
  0
SOLID
  5
7B1
  8
0
  6
CONTINUOUS
 10
-531.25523873704924
 20
89.388018275247504
 30
0.0
 11
-532.32837092201987
 21
89.388018275247504
 31
0.0
 12
-532.37101519709495
 22
89.285065888003629
 32
0.0
 13
-532.37101519709495
 23
89.285065888003629
 33
0.0
210
0.0
220
0.0
230
-1.0
  0
SOLID
  5
7B2
  8
0
  6
CONTINUOUS
 10
531.29788301212432
 20
89.285065888003629
 30
0.0
 11
531.40508937080608
 21
89.026246842901344
 31
0.0
 12
532.40508937080597
 22
89.026246842901344
 32
0.0
 13
532.40508937080597
 23
89.026246842901344
 33
0.0
210
0.0
220
0.0
230
1.0
  0
SOLID
  5
7B3
  8
0
  6
CONTINUOUS
 10
-531.29788301212432
 20
89.285065888003629
 30
0.0
 11
-532.37101519709495
 21
89.285065888003629
 31
0.0
 12
-532.40508937080597
 22
89.026246842901344
 32
0.0
 13
-532.40508937080597
 23
89.026246842901344
 33
0.0
210
0.0
220
0.0
230
-1.0
  0
SOLID
  5
7B4
  8
0
  6
CONTINUOUS
 10
531.40508937080608
 20
89.026246842901344
 30
0.0
 11
531.45620063137233
 21
88.638018275247816
 31
0.0
 12
532.45620063137244
 22
88.638018275247816
 32
0.0
 13
532.45620063137244
 23
88.638018275247816
 33
0.0
  0
SOLID
  5
7B5
  8
0
  6
CONTINUOUS
 10
-531.40508937080608
 20
89.026246842901344
 30
0.0
 11
-532.40508937080597
 21
89.026246842901344
 31
0.0
 12
-532.45620063137244
 22
88.638018275247816
 32
0.0
 13
-532.45620063137244
 23
88.638018275247816
 33
0.0
210
0.0
220
0.0
230
-1.0
  0
SOLID
  5
7B6
  8
0
  6
CONTINUOUS
 10
531.45620063137233
 20
88.638018275247816
 30
0.0
 11
531.4057800043729
 21
60.294872524738281
 31
0.0
 12
532.45620063137244
 22
60.294872524738281
 32
0.0
 13
532.45620063137244
 23
60.294872524738281
 33
0.0
210
0.0
220
0.0
230
1.0
  0
SOLID
  5
7B7
  8
0
  6
CONTINUOUS
 10
-531.45620063137233
 20
88.638018275247816
 30
0.0
 11
-532.45620063137244
 21
88.638018275247816
 31
0.0
 12
-532.45620063137244
 22
60.294872524738281
 32
0.0
 13
-532.45620063137244
 23
60.294872524738281
 33
0.0
210
0.0
220
0.0
230
-1.0
  0
SOLID
  5
7B8
  8
0
  6
CONTINUOUS
 10
531.4057800043729
 20
60.294872524738281
 30
0.0
 11
531.40508937080779
 21
59.906643957084739
 31
0.0
 12
532.40508937080699
 22
59.906643957084739
 32
0.0
 13
532.40508937080699
 23
59.906643957084739
 33
0.0
210
0.0
220
0.0
230
1.0
  0
SOLID
  5
7B9
  8
0
  6
CONTINUOUS
 10
-531.4057800043729
 20
60.294872524738281
 30
0.0
 11
-532.45620063137244
 21
60.294872524738281
 31
0.0
 12
-532.40508937080699
 22
59.906643957084739
 32
0.0
 13
-532.40508937080699
 23
59.906643957084739
 33
0.0
210
0.0
220
0.0
230
-1.0
  0
SOLID
  5
7BA
  8
0
  6
CONTINUOUS
 10
531.40508937080779
 20
59.906643957084739
 30
0.0
 11
531.29788301212579
 21
59.647824911982191
 31
0.0
 12
532.37101519709688
 22
59.647824911982191
 32
0.0
 13
532.37101519709688
 23
59.647824911982191
 33
0.0
210
0.0
220
0.0
230
1.0
  0
SOLID
  5
7BB
  8
0
  6
CONTINUOUS
 10
-531.40508937080779
 20
59.906643957084739
 30
0.0
 11
-532.40508937080699
 21
59.906643957084739
 31
0.0
 12
-532.37101519709688
 22
59.647824911982191
 32
0.0
 13
-532.37101519709688
 23
59.647824911982191
 33
0.0
210
0.0
220
0.0
230
-1.0
  0
SOLID
  5
7BC
  8
0
  6
CONTINUOUS
 10
531.29788301212579
 20
59.647824911982191
 30
0.0
 11
531.25523873705083
 21
59.544872524738651
 31
0.0
 12
532.32837092202192
 22
59.544872524738651
 32
0.0
 13
532.32837092202192
 23
59.544872524738651
 33
0.0
210
0.0
220
0.0
230
1.0
  0
SOLID
  5
7BD
  8
0
  6
CONTINUOUS
 10
-531.29788301212579
 20
59.647824911982191
 30
0.0
 11
-532.37101519709688
 21
59.647824911982191
 31
0.0
 12
-532.32837092202192
 22
59.544872524738651
 32
0.0
 13
-532.32837092202192
 23
59.544872524738651
 33
0.0
210
0.0
220
0.0
230
-1.0
  0
SOLID
  5
7BE
  8
0
  6
CONTINUOUS
 10
531.25523873705083
 20
59.544872524738651
 30
0.0
 11
531.01686080315415
 21
59.23421235295887
 31
0.0
 12
532.19969126558158
 22
59.23421235295887
 32
0.0
 13
532.19969126558158
 23
59.23421235295887
 33
0.0
210
0.0
220
0.0
230
1.0
  0
SOLID
  5
7BF
  8
0
  6
CONTINUOUS
 10
-531.25523873705083
 20
59.544872524738651
 30
0.0
 11
-532.32837092202192
 21
59.544872524738651
 31
0.0
 12
-532.19969126558158
 22
59.23421235295887
 32
0.0
 13
-532.19969126558158
 23
59.23421235295887
 33
0.0
210
0.0
220
0.0
230
-1.0
  0
SOLID
  5
7C0
  8
0
  6
CONTINUOUS
 10
531.01686080315415
 20
59.23421235295887
 30
0.0
 11
530.8275209749338
 21
59.044872524738558
 31
0.0
 12
532.12126414083536
 22
59.044872524738558
 32
0.0
 13
532.12126414083536
 23
59.044872524738558
 33
0.0
  0
SOLID
  5
7C1
  8
0
  6
CONTINUOUS
 10
-531.01686080315415
 20
59.23421235295887
 30
0.0
 11
-532.19969126558158
 21
59.23421235295887
 31
0.0
 12
-532.12126414083536
 22
59.044872524738558
 32
0.0
 13
-532.12126414083536
 23
59.044872524738558
 33
0.0
210
0.0
220
0.0
230
-1.0
  0
SOLID
  5
7C2
  8
0
  6
CONTINUOUS
 10
530.8275209749338
 20
59.044872524738558
 30
0.0
 11
530.30975402196759
 21
58.527105571772331
 31
0.0
 12
531.72396758434058
 22
58.527105571772331
 32
0.0
 13
531.72396758434058
 23
58.527105571772331
 33
0.0
210
0.0
220
0.0
230
1.0
  0
SOLID
  5
7C3
  8
0
  6
CONTINUOUS
 10
-530.8275209749338
 20
59.044872524738558
 30
0.0
 11
-532.12126414083536
 21
59.044872524738558
 31
0.0
 12
-531.72396758434058
 22
58.527105571772331
 32
0.0
 13
-531.72396758434058
 23
58.527105571772331
 33
0.0
210
0.0
220
0.0
230
-1.0
  0
SOLID
  5
7C4
  8
0
  6
CONTINUOUS
 10
530.30975402196759
 20
58.527105571772331
 30
0.0
 11
529.18843367840964
 21
57.405785228214476
 31
0.0
 12
530.60264724078274
 22
57.405785228214476
 32
0.0
 13
530.60264724078274
 23
57.405785228214476
 33
0.0
210
0.0
220
0.0
230
1.0
  0
SOLID
  5
7C5
  8
0
  6
CONTINUOUS
 10
-530.30975402196759
 20
58.527105571772331
 30
0.0
 11
-531.72396758434058
 21
58.527105571772331
 31
0.0
 12
-530.60264724078274
 22
57.405785228214476
 32
0.0
 13
-530.60264724078274
 23
57.405785228214476
 33
0.0
210
0.0
220
0.0
230
-1.0
  0
SOLID
  5
7C6
  8
0
  6
CONTINUOUS
 10
529.18843367840964
 20
57.405785228214476
 30
0.0
 11
528.79113712191486
 21
56.88801827524798
 31
0.0
 12
530.08488028781642
 22
56.88801827524798
 32
0.0
 13
530.08488028781642
 23
56.88801827524798
 33
0.0
  0
SOLID
  5
7C7
  8
0
  6
CONTINUOUS
 10
-529.18843367840964
 20
57.405785228214476
 30
0.0
 11
-530.60264724078274
 21
57.405785228214476
 31
0.0
 12
-530.08488028781642
 22
56.88801827524798
 32
0.0
 13
-530.08488028781642
 23
56.88801827524798
 33
0.0
210
0.0
220
0.0
230
-1.0
  0
SOLID
  5
7C8
  8
0
  6
CONTINUOUS
 10
528.79113712191486
 20
56.88801827524798
 30
0.0
 11
528.71270999716876
 21
56.698678447027959
 31
0.0
 12
529.89554045959642
 22
56.698678447027959
 32
0.0
 13
529.89554045959642
 23
56.698678447027959
 33
0.0
210
0.0
220
0.0
230
1.0
  0
SOLID
  5
7C9
  8
0
  6
CONTINUOUS
 10
-528.79113712191486
 20
56.88801827524798
 30
0.0
 11
-530.08488028781642
 21
56.88801827524798
 31
0.0
 12
-529.89554045959642
 22
56.698678447027959
 32
0.0
 13
-529.89554045959642
 23
56.698678447027959
 33
0.0
210
0.0
220
0.0
230
-1.0
  0
SOLID
  5
7CA
  8
0
  6
CONTINUOUS
 10
528.71270999716876
 20
56.698678447027959
 30
0.0
 11
528.58403034072842
 21
56.388018275248029
 31
0.0
 12
529.65716252569916
 22
56.388018275248029
 32
0.0
 13
529.65716252569916
 23
56.388018275248029
 33
0.0
210
0.0
220
0.0
230
1.0
  0
SOLID
  5
7CB
  8
0
  6
CONTINUOUS
 10
-528.71270999716876
 20
56.698678447027959
 30
0.0
 11
-529.89554045959642
 21
56.698678447027959
 31
0.0
 12
-529.65716252569916
 22
56.388018275248029
 32
0.0
 13
-529.65716252569916
 23
56.388018275248029
 33
0.0
210
0.0
220
0.0
230
-1.0
  0
SOLID
  5
7CC
  8
0
  6
CONTINUOUS
 10
528.58403034072842
 20
56.388018275248029
 30
0.0
 11
528.54138606565334
 21
56.285065888004233
 31
0.0
 12
529.6145182506242
 22
56.285065888004233
 32
0.0
 13
529.6145182506242
 23
56.285065888004233
 33
0.0
210
0.0
220
0.0
230
1.0
  0
SOLID
  5
7CD
  8
0
  6
CONTINUOUS
 10
-528.58403034072842
 20
56.388018275248029
 30
0.0
 11
-529.65716252569916
 21
56.388018275248029
 31
0.0
 12
-529.6145182506242
 22
56.285065888004233
 32
0.0
 13
-529.6145182506242
 23
56.285065888004233
 33
0.0
210
0.0
220
0.0
230
-1.0
  0
SOLID
  5
7CE
  8
0
  6
CONTINUOUS
 10
528.54138606565334
 20
56.285065888004233
 30
0.0
 11
528.50731189194244
 21
56.026246842901728
 31
0.0
 12
529.50731189194232
 22
56.026246842901728
 32
0.0
 13
529.50731189194232
 23
56.026246842901728
 33
0.0
  0
SOLID
  5
7CF
  8
0
  6
CONTINUOUS
 10
-528.54138606565334
 20
56.285065888004233
 30
0.0
 11
-529.6145182506242
 21
56.285065888004233
 31
0.0
 12
-529.50731189194232
 22
56.026246842901728
 32
0.0
 13
-529.50731189194232
 23
56.026246842901728
 33
0.0
210
0.0
220
0.0
230
-1.0
  0
SOLID
  5
7D0
  8
0
  6
CONTINUOUS
 10
528.50731189194244
 20
56.026246842901728
 30
0.0
 11
528.45620063137608
 21
55.638018275247731
 31
0.0
 12
529.50679080473094
 22
55.638018275247731
 32
0.0
 13
529.50679080473094
 23
55.638018275247731
 33
0.0
210
0.0
220
0.0
230
1.0
  0
SOLID
  5
7D1
  8
0
  6
CONTINUOUS
 10
-528.50731189194244
 20
56.026246842901728
 30
0.0
 11
-529.50731189194232
 21
56.026246842901728
 31
0.0
 12
-529.50679080473094
 22
55.638018275247731
 32
0.0
 13
-529.50679080473094
 23
55.638018275247731
 33
0.0
210
0.0
220
0.0
230
-1.0
  0
SOLID
  5
7D2
  8
0
  6
CONTINUOUS
 10
528.45620063137608
 20
55.638018275247731
 30
0.0
 11
528.50746459565914
 21
17.946533795644651
 31
0.0
 12
529.45620063137596
 22
17.946533795644651
 32
0.0
 13
529.45620063137596
 23
17.946533795644651
 33
0.0
210
0.0
220
0.0
230
1.0
  0
SOLID
  5
7D3
  8
0
  6
CONTINUOUS
 10
-528.45620063137608
 20
55.638018275247731
 30
0.0
 11
-529.50679080473094
 21
55.638018275247731
 31
0.0
 12
-529.45620063137596
 22
17.946533795644651
 32
0.0
 13
-529.45620063137596
 23
17.946533795644651
 33
0.0
210
0.0
220
0.0
230
-1.0
  0
SOLID
  5
7D4
  8
0
  6
CONTINUOUS
 10
528.50746459565914
 20
17.946533795644651
 30
0.0
 11
528.50787835206245
 21
17.642322186852422
 31
0.0
 12
529.48737276634836
 22
17.642322186852422
 32
0.0
 13
529.48737276634836
 23
17.642322186852422
 33
0.0
  0
SOLID
  5
7D5
  8
0
  6
CONTINUOUS
 10
-528.50746459565914
 20
17.946533795644651
 30
0.0
 11
-529.45620063137596
 21
17.946533795644651
 31
0.0
 12
-529.48737276634836
 22
17.642322186852422
 32
0.0
 13
-529.48737276634836
 23
17.642322186852422
 33
0.0
210
0.0
220
0.0
230
-1.0
  0
SOLID
  5
7D6
  8
0
  6
CONTINUOUS
 10
528.50787835206245
 20
17.642322186852422
 30
0.0
 11
528.50815418966454
 21
17.439514447657679
 31
0.0
 12
529.55151941865859
 22
17.439514447657679
 32
0.0
 13
529.55151941865859
 23
17.439514447657679
 33
0.0
  0
SOLID
  5
7D7
  8
0
  6
CONTINUOUS
 10
-528.50787835206245
 20
17.642322186852422
 30
0.0
 11
-529.48737276634836
 21
17.642322186852422
 31
0.0
 12
-529.55151941865859
 22
17.439514447657679
 32
0.0
 13
-529.55151941865859
 23
17.439514447657679
 33
0.0
210
0.0
220
0.0
230
-1.0
  0
SOLID
  5
7D8
  8
0
  6
CONTINUOUS
 10
528.50815418966454
 20
17.439514447657679
 30
0.0
 11
528.53622833961174
 21
17.350754478500338
 31
0.0
 12
529.57959356860601
 22
17.350754478500338
 32
0.0
 13
529.57959356860601
 23
17.350754478500338
 33
0.0
210
0.0
220
0.0
230
1.0
  0
SOLID
  5
7D9
  8
0
  6
CONTINUOUS
 10
-528.50815418966454
 20
17.439514447657679
 30
0.0
 11
-529.55151941865859
 21
17.439514447657679
 31
0.0
 12
-529.57959356860601
 22
17.350754478500338
 32
0.0
 13
-529.57959356860601
 23
17.350754478500338
 33
0.0
210
0.0
220
0.0
230
-1.0
  0
SOLID
  5
7DA
  8
0
  6
CONTINUOUS
 10
528.53622833961174
 20
17.350754478500338
 30
0.0
 11
528.62061700660092
 21
17.083949054533399
 31
0.0
 12
529.72903007908656
 22
17.083949054533399
 32
0.0
 13
529.72903007908656
 23
17.083949054533399
 33
0.0
210
0.0
220
0.0
230
1.0
  0
SOLID
  5
7DB
  8
0
  6
CONTINUOUS
 10
-528.53622833961174
 20
17.350754478500338
 30
0.0
 11
-529.57959356860601
 21
17.350754478500338
 31
0.0
 12
-529.72903007908656
 22
17.083949054533399
 32
0.0
 13
-529.72903007908656
 23
17.083949054533399
 33
0.0
210
0.0
220
0.0
230
-1.0
  0
SOLID
  5
7DC
  8
0
  6
CONTINUOUS
 10
528.62061700660092
 20
17.083949054533399
 30
0.0
 11
528.66185552676063
 21
16.953568267070839
 31
0.0
 12
529.86470712310472
 22
16.953568267070839
 32
0.0
 13
529.86470712310472
 23
16.953568267070839
 33
0.0
  0
SOLID
  5
7DD
  8
0
  6
CONTINUOUS
 10
-528.62061700660092
 20
17.083949054533399
 30
0.0
 11
-529.72903007908656
 21
17.083949054533399
 31
0.0
 12
-529.86470712310472
 22
16.953568267070839
 32
0.0
 13
-529.86470712310472
 23
16.953568267070839
 33
0.0
210
0.0
220
0.0
230
-1.0
  0
SOLID
  5
7DE
  8
0
  6
CONTINUOUS
 10
528.66185552676063
 20
16.953568267070839
 30
0.0
 11
528.91091637756153
 21
16.508892560459191
 31
0.0
 12
530.32744620141455
 22
16.508892560459191
 32
0.0
 13
530.32744620141455
 23
16.508892560459191
 33
0.0
210
0.0
220
0.0
230
1.0
  0
SOLID
  5
7DF
  8
0
  6
CONTINUOUS
 10
-528.66185552676063
 20
16.953568267070839
 30
0.0
 11
-529.86470712310472
 21
16.953568267070839
 31
0.0
 12
-530.32744620141455
 22
16.508892560459191
 32
0.0
 13
-530.32744620141455
 23
16.508892560459191
 33
0.0
210
0.0
220
0.0
230
-1.0
  0
SOLID
  5
7E0
  8
0
  6
CONTINUOUS
 10
528.91091637756153
 20
16.508892560459191
 30
0.0
 11
529.24498506412283
 21
16.123969316018002
 31
0.0
 12
530.72800558593781
 22
16.123969316018002
 32
0.0
 13
530.72800558593781
 23
16.123969316018002
 33
0.0
210
0.0
220
0.0
230
1.0
  0
SOLID
  5
7E1
  8
0
  6
CONTINUOUS
 10
-528.91091637756153
 20
16.508892560459191
 30
0.0
 11
-530.32744620141455
 21
16.508892560459191
 31
0.0
 12
-530.72800558593781
 22
16.123969316018002
 32
0.0
 13
-530.72800558593781
 23
16.123969316018002
 33
0.0
210
0.0
220
0.0
230
-1.0
  0
SOLID
  5
7E2
  8
0
  6
CONTINUOUS
 10
529.24498506412283
 20
16.123969316018002
 30
0.0
 11
530.18439567681025
 21
15.22122931074143
 31
0.0
 12
531.66741619862535
 22
15.22122931074143
 32
0.0
 13
531.66741619862535
 23
15.22122931074143
 33
0.0
210
0.0
220
0.0
230
1.0
  0
SOLID
  5
7E3
  8
0
  6
CONTINUOUS
 10
-529.24498506412283
 20
16.123969316018002
 30
0.0
 11
-530.72800558593781
 21
16.123969316018002
 31
0.0
 12
-531.66741619862535
 22
15.22122931074143
 32
0.0
 13
-531.66741619862535
 23
15.22122931074143
 33
0.0
210
0.0
220
0.0
230
-1.0
  0
SOLID
  5
7E4
  8
0
  6
CONTINUOUS
 10
530.18439567681025
 20
15.22122931074143
 30
0.0
 11
530.58495506133352
 21
14.83630606630024
 31
0.0
 12
532.00148488518698
 22
14.83630606630024
 32
0.0
 13
532.00148488518698
 23
14.83630606630024
 33
0.0
210
0.0
220
0.0
230
1.0
  0
SOLID
  5
7E5
  8
0
  6
CONTINUOUS
 10
-530.18439567681025
 20
15.22122931074143
 30
0.0
 11
-531.66741619862535
 21
15.22122931074143
 31
0.0
 12
-532.00148488518698
 22
14.83630606630024
 32
0.0
 13
-532.00148488518698
 23
14.83630606630024
 33
0.0
210
0.0
220
0.0
230
-1.0
  0
SOLID
  5
7E6
  8
0
  6
CONTINUOUS
 10
530.58495506133352
 20
14.83630606630024
 30
0.0
 11
531.04769413964345
 21
14.391630359688589
 31
0.0
 12
532.25054573598766
 22
14.391630359688589
 32
0.0
 13
532.25054573598766
 23
14.391630359688589
 33
0.0
210
0.0
220
0.0
230
1.0
  0
SOLID
  5
7E7
  8
0
  6
CONTINUOUS
 10
-530.58495506133352
 20
14.83630606630024
 30
0.0
 11
-532.00148488518698
 21
14.83630606630024
 31
0.0
 12
-532.25054573598766
 22
14.391630359688589
 32
0.0
 13
-532.25054573598766
 23
14.391630359688589
 33
0.0
210
0.0
220
0.0
230
-1.0
  0
SOLID
  5
7E8
  8
0
  6
CONTINUOUS
 10
531.04769413964345
 20
14.391630359688589
 30
0.0
 11
531.18337118366162
 21
14.26124957222603
 31
0.0
 12
532.29178425614725
 22
14.26124957222603
 32
0.0
 13
532.29178425614725
 23
14.26124957222603
 33
0.0
210
0.0
220
0.0
230
1.0
  0
SOLID
  5
7E9
  8
0
  6
CONTINUOUS
 10
-531.04769413964345
 20
14.391630359688589
 30
0.0
 11
-532.25054573598766
 21
14.391630359688589
 31
0.0
 12
-532.29178425614725
 22
14.26124957222603
 32
0.0
 13
-532.29178425614725
 23
14.26124957222603
 33
0.0
210
0.0
220
0.0
230
-1.0
  0
SOLID
  5
7EA
  8
0
  6
CONTINUOUS
 10
531.18337118366162
 20
14.26124957222603
 30
0.0
 11
531.33280769414205
 21
13.99444414825909
 31
0.0
 12
532.37617292313644
 22
13.99444414825909
 32
0.0
 13
532.37617292313644
 23
13.99444414825909
 33
0.0
  0
SOLID
  5
7EB
  8
0
  6
CONTINUOUS
 10
-531.18337118366162
 20
14.26124957222603
 30
0.0
 11
-532.29178425614725
 21
14.26124957222603
 31
0.0
 12
-532.37617292313644
 22
13.99444414825909
 32
0.0
 13
-532.37617292313644
 23
13.99444414825909
 33
0.0
210
0.0
220
0.0
230
-1.0
  0
SOLID
  5
7EC
  8
0
  6
CONTINUOUS
 10
531.33280769414205
 20
13.99444414825909
 30
0.0
 11
531.36088184408936
 21
13.905684179101611
 31
0.0
 12
532.40424707308364
 22
13.905684179101611
 32
0.0
 13
532.40424707308364
 23
13.905684179101611
 33
0.0
210
0.0
220
0.0
230
1.0
  0
SOLID
  5
7ED
  8
0
  6
CONTINUOUS
 10
-531.33280769414205
 20
13.99444414825909
 30
0.0
 11
-532.37617292313644
 21
13.99444414825909
 31
0.0
 12
-532.40424707308364
 22
13.905684179101611
 32
0.0
 13
-532.40424707308364
 23
13.905684179101611
 33
0.0
210
0.0
220
0.0
230
-1.0
  0
SOLID
  5
7EE
  8
0
  6
CONTINUOUS
 10
531.36088184408936
 20
13.905684179101611
 30
0.0
 11
531.42502849639982
 21
13.70287643990687
 31
0.0
 12
532.40459900533472
 22
13.70287643990687
 32
0.0
 13
532.40459900533472
 23
13.70287643990687
 33
0.0
  0
SOLID
  5
7EF
  8
0
  6
CONTINUOUS
 10
-531.36088184408936
 20
13.905684179101611
 30
0.0
 11
-532.40424707308364
 21
13.905684179101611
 31
0.0
 12
-532.40459900533472
 22
13.70287643990687
 32
0.0
 13
-532.40459900533472
 23
13.70287643990687
 33
0.0
210
0.0
220
0.0
230
-1.0
  0
SOLID
  5
7F0
  8
0
  6
CONTINUOUS
 10
531.42502849639982
 20
13.70287643990687
 30
0.0
 11
531.45620063137414
 21
13.39866483111464
 31
0.0
 12
532.40512690371145
 22
13.39866483111464
 32
0.0
 13
532.40512690371145
 23
13.39866483111464
 33
0.0
210
0.0
220
0.0
230
1.0
  0
SOLID
  5
7F1
  8
0
  6
CONTINUOUS
 10
-531.42502849639982
 20
13.70287643990687
 30
0.0
 11
-532.40459900533472
 21
13.70287643990687
 31
0.0
 12
-532.40512690371145
 22
13.39866483111464
 32
0.0
 13
-532.40512690371145
 23
13.39866483111464
 33
0.0
210
0.0
220
0.0
230
-1.0
  0
SOLID
  5
7F2
  8
0
  6
CONTINUOUS
 10
501.43154399424202
 20
2.2216674692096769
 30
0.0
 11
501.05654170760948
 21
1.2946435833143819
 31
0.0
 12
503.72319211387742
 22
1.2946435833143819
 32
0.0
 13
503.72319211387742
 23
1.2946435833143819
 33
0.0
210
0.0
220
0.0
230
1.0
  0
SOLID
  5
7F3
  8
0
  6
CONTINUOUS
 10
501.05654170760948
 20
1.2946435833143819
 30
0.0
 11
506.24434558565957
 21
-0.8039413037310011
 31
0.0
 12
508.91099599192768
 22
-0.8039413037310011
 32
0.0
 13
508.91099599192768
 23
-0.8039413037310011
 33
0.0
210
0.0
220
0.0
230
1.0
  0
SOLID
  5
7F4
  8
0
  6
CONTINUOUS
 10
-501.05654170760948
 20
1.2946435833143819
 30
0.0
 11
-503.72319211387742
 21
1.2946435833143819
 31
0.0
 12
-508.91099599192768
 22
-0.8039413037310011
 32
0.0
 13
-508.91099599192768
 23
-0.8039413037310011
 33
0.0
210
0.0
220
0.0
230
-1.0
  0
SOLID
  5
7F5
  8
0
  6
CONTINUOUS
 10
506.24434558565957
 20
-0.8039413037310011
 30
0.0
 11
507.29976966570962
 21
-1.2308843948505479
 31
0.0
 12
509.67475915576921
 22
-1.2308843948505479
 32
0.0
 13
509.67475915576921
 23
-1.2308843948505479
 33
0.0
210
0.0
220
0.0
230
1.0
  0
SOLID
  5
7F6
  8
0
  6
CONTINUOUS
 10
-506.24434558565957
 20
-0.8039413037310011
 30
0.0
 11
-508.91099599192768
 21
-0.8039413037310011
 31
0.0
 12
-509.67475915576921
 22
-1.2308843948505479
 32
0.0
 13
-509.67475915576921
 23
-1.2308843948505479
 33
0.0
210
0.0
220
0.0
230
-1.0
  0
SOLID
  5
7F7
  8
0
  6
CONTINUOUS
 10
507.29976966570962
 20
-1.2308843948505479
 30
0.0
 11
508.53599370529503
 21
-1.7309651896262961
 31
0.0
 12
510.2005095535277
 22
-1.7309651896262961
 32
0.0
 13
510.2005095535277
 23
-1.7309651896262961
 33
0.0
210
0.0
220
0.0
230
1.0
  0
SOLID
  5
7F8
  8
0
  6
CONTINUOUS
 10
-507.29976966570962
 20
-1.2308843948505479
 30
0.0
 11
-509.67475915576921
 21
-1.2308843948505479
 31
0.0
 12
-510.2005095535277
 22
-1.7309651896262961
 32
0.0
 13
-510.2005095535277
 23
-1.7309651896262961
 33
0.0
210
0.0
220
0.0
230
-1.0
  0
SOLID
  5
7F9
  8
0
  6
CONTINUOUS
 10
508.53599370529503
 20
-1.7309651896262961
 30
0.0
 11
508.7201843220509
 21
-1.8339276195992791
 31
0.0
 12
510.30875713887389
 22
-1.8339276195992791
 32
0.0
 13
510.30875713887389
 23
-1.8339276195992791
 33
0.0
210
0.0
220
0.0
230
1.0
  0
SOLID
  5
7FA
  8
0
  6
CONTINUOUS
 10
-508.53599370529503
 20
-1.7309651896262961
 30
0.0
 11
-510.2005095535277
 21
-1.7309651896262961
 31
0.0
 12
-510.30875713887389
 22
-1.8339276195992791
 32
0.0
 13
-510.30875713887389
 23
-1.8339276195992791
 33
0.0
210
0.0
220
0.0
230
-1.0
  0
SOLID
  5
7FB
  8
0
  6
CONTINUOUS
 10
508.7201843220509
 20
-1.8339276195992791
 30
0.0
 11
509.08153882232489
 21
-2.0359245404259951
 31
0.0
 12
510.43533211411398
 22
-2.0359245404259951
 32
0.0
 13
510.43533211411398
 23
-2.0359245404259951
 33
0.0
  0
SOLID
  5
7FC
  8
0
  6
CONTINUOUS
 10
-508.7201843220509
 20
-1.8339276195992791
 30
0.0
 11
-510.30875713887389
 21
-1.8339276195992791
 31
0.0
 12
-510.43533211411398
 22
-2.0359245404259951
 32
0.0
 13
-510.43533211411398
 23
-2.0359245404259951
 33
0.0
210
0.0
220
0.0
230
-1.0
  0
SOLID
  5
7FD
  8
0
  6
CONTINUOUS
 10
509.08153882232489
 20
-2.0359245404259951
 30
0.0
 11
509.53439452454239
 21
-2.4666697009607428
 31
0.0
 12
510.70524493162787
 22
-2.4666697009607428
 32
0.0
 13
510.70524493162787
 23
-2.4666697009607428
 33
0.0
210
0.0
220
0.0
230
1.0
  0
SOLID
  5
7FE
  8
0
  6
CONTINUOUS
 10
-509.08153882232489
 20
-2.0359245404259951
 30
0.0
 11
-510.43533211411398
 21
-2.0359245404259951
 31
0.0
 12
-510.70524493162787
 22
-2.4666697009607428
 32
0.0
 13
-510.70524493162787
 23
-2.4666697009607428
 33
0.0
210
0.0
220
0.0
230
-1.0
  0
SOLID
  5
7FF
  8
0
  6
CONTINUOUS
 10
509.53439452454239
 20
-2.4666697009607428
 30
0.0
 11
509.60251519983541
 21
-2.5753812897065198
 31
0.0
 12
510.77336560692089
 22
-2.5753812897065198
 32
0.0
 13
510.77336560692089
 23
-2.5753812897065198
 33
0.0
210
0.0
220
0.0
230
1.0
  0
SOLID
  5
800
  8
0
  6
CONTINUOUS
 10
-509.53439452454239
 20
-2.4666697009607428
 30
0.0
 11
-510.70524493162787
 21
-2.4666697009607428
 31
0.0
 12
-510.77336560692089
 22
-2.5753812897065198
 32
0.0
 13
-510.77336560692089
 23
-2.5753812897065198
 33
0.0
210
0.0
220
0.0
230
-1.0
  0
SOLID
  5
801
  8
0
  6
CONTINUOUS
 10
509.60251519983541
 20
-2.5753812897065198
 30
0.0
 11
509.86625771600461
 21
-2.996279465323112
 31
0.0
 12
510.90777714890629
 22
-2.996279465323112
 32
0.0
 13
510.90777714890629
 23
-2.996279465323112
 33
0.0
210
0.0
220
0.0
230
1.0
  0
SOLID
  5
802
  8
0
  6
CONTINUOUS
 10
-509.60251519983541
 20
-2.5753812897065198
 30
0.0
 11
-510.77336560692089
 21
-2.5753812897065198
 31
0.0
 12
-510.90777714890629
 22
-2.996279465323112
 32
0.0
 13
-510.90777714890629
 23
-2.996279465323112
 33
0.0
210
0.0
220
0.0
230
-1.0
  0
SOLID
  5
803
  8
0
  6
CONTINUOUS
 10
509.86625771600461
 20
-2.996279465323112
 30
0.0
 11
509.99802749320332
 21
-3.408905181873521
 31
0.0
 12
511.039546926105
 22
-3.408905181873521
 32
0.0
 13
511.039546926105
 23
-3.408905181873521
 33
0.0
210
0.0
220
0.0
230
1.0
  0
SOLID
  5
804
  8
0
  6
CONTINUOUS
 10
-509.86625771600461
 20
-2.996279465323112
 30
0.0
 11
-510.90777714890629
 21
-2.996279465323112
 31
0.0
 12
-511.039546926105
 22
-3.408905181873521
 32
0.0
 13
-511.039546926105
 23
-3.408905181873521
 33
0.0
210
0.0
220
0.0
230
-1.0
  0
SOLID
  5
805
  8
0
  6
CONTINUOUS
 10
509.99802749320332
 20
-3.408905181873521
 30
0.0
 11
510.05638722970752
 21
-3.5916536740138261
 31
0.0
 12
511.05024154966912
 22
-3.5916536740138261
 32
0.0
 13
511.05024154966912
 23
-3.5916536740138261
 33
0.0
210
0.0
220
0.0
230
1.0
  0
SOLID
  5
806
  8
0
  6
CONTINUOUS
 10
-509.99802749320332
 20
-3.408905181873521
 30
0.0
 11
-511.039546926105
 21
-3.408905181873521
 31
0.0
 12
-511.05024154966912
 22
-3.5916536740138261
 32
0.0
 13
-511.05024154966912
 23
-3.5916536740138261
 33
0.0
210
0.0
220
0.0
230
-1.0
  0
SOLID
  5
807
  8
0
  6
CONTINUOUS
 10
510.05638722970752
 20
-3.5916536740138261
 30
0.0
 11
510.09290013287278
 21
-4.2155819457389114
 31
0.0
 12
511.08675445283433
 22
-4.2155819457389114
 32
0.0
 13
511.08675445283433
 23
-4.2155819457389114
 33
0.0
210
0.0
220
0.0
230
1.0
  0
SOLID
  5
808
  8
0
  6
CONTINUOUS
 10
-510.05638722970752
 20
-3.5916536740138261
 30
0.0
 11
-511.05024154966912
 21
-3.5916536740138261
 31
0.0
 12
-511.08675445283433
 22
-4.2155819457389114
 32
0.0
 13
-511.08675445283433
 23
-4.2155819457389114
 33
0.0
210
0.0
220
0.0
230
-1.0
  0
SOLID
  5
809
  8
0
  6
CONTINUOUS
 10
510.09290013287278
 20
-4.2155819457389114
 30
0.0
 11
510.07989629353852
 21
-4.2824047622885004
 31
0.0
 12
511.0906649905362
 22
-4.2824047622885004
 32
0.0
 13
511.0906649905362
 23
-4.2824047622885004
 33
0.0
210
0.0
220
0.0
230
1.0
  0
SOLID
  5
80A
  8
0
  6
CONTINUOUS
 10
-510.09290013287278
 20
-4.2155819457389114
 30
0.0
 11
-511.08675445283433
 21
-4.2155819457389114
 31
0.0
 12
-511.0906649905362
 22
-4.2824047622885004
 32
0.0
 13
-511.0906649905362
 23
-4.2824047622885004
 33
0.0
210
0.0
220
0.0
230
-1.0
  0
SOLID
  5
80B
  8
0
  6
CONTINUOUS
 10
510.07989629353852
 20
-4.2824047622885004
 30
0.0
 11
509.97351440012972
 21
-4.829069294567403
 31
0.0
 12
510.9842830971275
 22
-4.829069294567403
 32
0.0
 13
510.9842830971275
 23
-4.829069294567403
 33
0.0
210
0.0
220
0.0
230
1.0
  0
SOLID
  5
80C
  8
0
  6
CONTINUOUS
 10
-510.07989629353852
 20
-4.2824047622885004
 30
0.0
 11
-511.0906649905362
 21
-4.2824047622885004
 31
0.0
 12
-510.9842830971275
 22
-4.829069294567403
 32
0.0
 13
-510.9842830971275
 23
-4.829069294567403
 33
0.0
210
0.0
220
0.0
230
-1.0
  0
SOLID
  5
80D
  8
0
  6
CONTINUOUS
 10
509.97351440012972
 20
-4.829069294567403
 30
0.0
 11
509.82543849726699
 21
-5.1412870506484429
 31
0.0
 12
510.92352496469613
 22
-5.1412870506484429
 32
0.0
 13
510.92352496469613
 23
-5.1412870506484429
 33
0.0
210
0.0
220
0.0
230
1.0
  0
SOLID
  5
80E
  8
0
  6
CONTINUOUS
 10
-509.97351440012972
 20
-4.829069294567403
 30
0.0
 11
-510.9842830971275
 21
-4.829069294567403
 31
0.0
 12
-510.92352496469613
 22
-5.1412870506484429
 32
0.0
 13
-510.92352496469613
 23
-5.1412870506484429
 33
0.0
210
0.0
220
0.0
230
-1.0
  0
SOLID
  5
80F
  8
0
  6
CONTINUOUS
 10
509.82543849726699
 20
-5.1412870506484429
 30
0.0
 11
509.70569153816081
 21
-5.393773283363231
 31
0.0
 12
510.80377800559
 22
-5.393773283363231
 32
0.0
 13
510.80377800559
 23
-5.393773283363231
 33
0.0
210
0.0
220
0.0
230
1.0
  0
SOLID
  5
810
  8
0
  6
CONTINUOUS
 10
-509.82543849726699
 20
-5.1412870506484429
 30
0.0
 11
-510.92352496469613
 21
-5.1412870506484429
 31
0.0
 12
-510.80377800559
 22
-5.393773283363231
 32
0.0
 13
-510.80377800559
 23
-5.393773283363231
 33
0.0
210
0.0
220
0.0
230
-1.0
  0
SOLID
  5
811
  8
0
  6
CONTINUOUS
 10
509.70569153816081
 20
-5.393773283363231
 30
0.0
 11
509.3061702478833
 21
-5.8744003934706583
 31
0.0
 12
510.57583038927629
 22
-5.8744003934706583
 32
0.0
 13
510.57583038927629
 23
-5.8744003934706583
 33
0.0
210
0.0
220
0.0
230
1.0
  0
SOLID
  5
812
  8
0
  6
CONTINUOUS
 10
-509.70569153816081
 20
-5.393773283363231
 30
0.0
 11
-510.80377800559
 21
-5.393773283363231
 31
0.0
 12
-510.57583038927629
 22
-5.8744003934706583
 32
0.0
 13
-510.57583038927629
 23
-5.8744003934706583
 33
0.0
210
0.0
220
0.0
230
-1.0
  0
SOLID
  5
813
  8
0
  6
CONTINUOUS
 10
509.3061702478833
 20
-5.8744003934706583
 30
0.0
 11
509.22678576672018
 21
-5.9318726349626303
 31
0.0
 12
510.54857295793948
 22
-5.9318726349626303
 32
0.0
 13
510.54857295793948
 23
-5.9318726349626303
 33
0.0
210
0.0
220
0.0
230
1.0
  0
SOLID
  5
814
  8
0
  6
CONTINUOUS
 10
-509.3061702478833
 20
-5.8744003934706583
 30
0.0
 11
-510.57583038927629
 21
-5.8744003934706583
 31
0.0
 12
-510.54857295793948
 22
-5.9318726349626303
 32
0.0
 13
-510.54857295793948
 23
-5.9318726349626303
 33
0.0
210
0.0
220
0.0
230
-1.0
  0
SOLID
  5
815
  8
0
  6
CONTINUOUS
 10
509.22678576672018
 20
-5.9318726349626303
 30
0.0
 11
508.79992026988958
 21
-6.2409118395905017
 31
0.0
 12
510.29168411587722
 22
-6.2409118395905017
 32
0.0
 13
510.29168411587722
 23
-6.2409118395905017
 33
0.0
210
0.0
220
0.0
230
1.0
  0
SOLID
  5
816
  8
0
  6
CONTINUOUS
 10
-509.22678576672018
 20
-5.9318726349626303
 30
0.0
 11
-510.54857295793948
 21
-5.9318726349626303
 31
0.0
 12
-510.29168411587722
 22
-6.2409118395905017
 32
0.0
 13
-510.29168411587722
 23
-6.2409118395905017
 33
0.0
210
0.0
220
0.0
230
-1.0
  0
SOLID
  5
817
  8
0
  6
CONTINUOUS
 10
508.79992026988958
 20
-6.2409118395905017
 30
0.0
 11
508.21858179691361
 21
-6.4704009682937951
 31
0.0
 12
510.10092127525479
 22
-6.4704009682937951
 32
0.0
 13
510.10092127525479
 23
-6.4704009682937951
 33
0.0
210
0.0
220
0.0
230
1.0
  0
SOLID
  5
818
  8
0
  6
CONTINUOUS
 10
-508.79992026988958
 20
-6.2409118395905017
 30
0.0
 11
-510.29168411587722
 21
-6.2409118395905017
 31
0.0
 12
-510.10092127525479
 22
-6.4704009682937951
 32
0.0
 13
-510.10092127525479
 23
-6.4704009682937951
 33
0.0
210
0.0
220
0.0
230
-1.0
  0
SOLID
  5
819
  8
0
  6
CONTINUOUS
 10
508.21858179691361
 20
-6.4704009682937951
 30
0.0
 11
507.5984879887136
 21
-6.5485249043657197
 31
0.0
 12
510.03598075258219
 22
-6.5485249043657197
 32
0.0
 13
510.03598075258219
 23
-6.5485249043657197
 33
0.0
210
0.0
220
0.0
230
1.0
  0
SOLID
  5
81A
  8
0
  6
CONTINUOUS
 10
-508.21858179691361
 20
-6.4704009682937951
 30
0.0
 11
-510.10092127525479
 21
-6.4704009682937951
 31
0.0
 12
-510.03598075258219
 22
-6.5485249043657197
 32
0.0
 13
-510.03598075258219
 23
-6.5485249043657197
 33
0.0
210
0.0
220
0.0
230
-1.0
  0
SOLID
  5
81B
  8
0
  6
CONTINUOUS
 10
503.9562006313738
 20
-6.5485249043657197
 30
0.0
 11
503.52912415521388
 21
-6.6047505891130314
 31
0.0
 12
509.98924315155102
 22
-6.6047505891130314
 32
0.0
 13
509.98924315155102
 23
-6.6047505891130314
 33
0.0
210
0.0
220
0.0
230
1.0
  0
SOLID
  5
81C
  8
0
  6
CONTINUOUS
 10
-503.9562006313738
 20
-6.5485249043657197
 30
0.0
 11
-510.03598075258219
 21
-6.5485249043657197
 31
0.0
 12
-509.98924315155102
 22
-6.6047505891130314
 32
0.0
 13
-509.98924315155102
 23
-6.6047505891130314
 33
0.0
210
0.0
220
0.0
230
-1.0
  0
SOLID
  5
81D
  8
0
  6
CONTINUOUS
 10
503.52912415521388
 20
-6.6047505891130314
 30
0.0
 11
503.30915301861779
 21
-6.6337103386430547
 31
0.0
 12
509.9492420200242
 22
-6.6337103386430547
 32
0.0
 13
509.9492420200242
 23
-6.6337103386430547
 33
0.0
210
0.0
220
0.0
230
1.0
  0
SOLID
  5
81E
  8
0
  6
CONTINUOUS
 10
-503.52912415521388
 20
-6.6047505891130314
 30
0.0
 11
-509.98924315155102
 21
-6.6047505891130314
 31
0.0
 12
-509.9492420200242
 22
-6.6337103386430547
 32
0.0
 13
-509.9492420200242
 23
-6.6337103386430547
 33
0.0
210
0.0
220
0.0
230
-1.0
  0
SOLID
  5
81F
  8
0
  6
CONTINUOUS
 10
503.30915301861779
 20
-6.6337103386430547
 30
0.0
 11
502.70620063137409
 21
-6.8834613949046348
 31
0.0
 12
509.6042692556677
 22
-6.8834613949046348
 32
0.0
 13
509.6042692556677
 23
-6.8834613949046348
 33
0.0
210
0.0
220
0.0
230
1.0
  0
SOLID
  5
820
  8
0
  6
CONTINUOUS
 10
-503.30915301861779
 20
-6.6337103386430547
 30
0.0
 11
-509.9492420200242
 21
-6.6337103386430547
 31
0.0
 12
-509.6042692556677
 22
-6.8834613949046348
 32
0.0
 13
-509.6042692556677
 23
-6.8834613949046348
 33
0.0
210
0.0
220
0.0
230
-1.0
  0
SOLID
  5
821
  8
0
  6
CONTINUOUS
 10
502.70620063137409
 20
-6.8834613949046348
 30
0.0
 11
502.40071780273871
 21
-7.1178666136807029
 31
0.0
 12
509.28049318236009
 22
-7.1178666136807029
 32
0.0
 13
509.28049318236009
 23
-7.1178666136807029
 33
0.0
210
0.0
220
0.0
230
1.0
  0
SOLID
  5
822
  8
0
  6
CONTINUOUS
 10
-502.70620063137409
 20
-6.8834613949046348
 30
0.0
 11
-509.6042692556677
 21
-6.8834613949046348
 31
0.0
 12
-509.28049318236009
 22
-7.1178666136807029
 32
0.0
 13
-509.28049318236009
 23
-7.1178666136807029
 33
0.0
210
0.0
220
0.0
230
-1.0
  0
SOLID
  5
823
  8
0
  6
CONTINUOUS
 10
502.40071780273871
 20
-7.1178666136807029
 30
0.0
 11
502.18843367840759
 21
-7.2807579513993437
 31
0.0
 12
508.86785925035019
 22
-7.2807579513993437
 32
0.0
 13
508.86785925035019
 23
-7.2807579513993437
 33
0.0
210
0.0
220
0.0
230
1.0
  0
SOLID
  5
824
  8
0
  6
CONTINUOUS
 10
-502.40071780273871
 20
-7.1178666136807029
 30
0.0
 11
-509.28049318236009
 21
-7.1178666136807029
 31
0.0
 12
-508.86785925035019
 22
-7.2807579513993437
 32
0.0
 13
-508.86785925035019
 23
-7.2807579513993437
 33
0.0
210
0.0
220
0.0
230
-1.0
  0
SOLID
  5
825
  8
0
  6
CONTINUOUS
 10
502.18843367840759
 20
-7.2807579513993437
 30
0.0
 11
502.06689411528458
 21
-7.4391513938653651
 31
0.0
 12
508.46661932019367
 22
-7.4391513938653651
 32
0.0
 13
508.46661932019367
 23
-7.4391513938653651
 33
0.0
210
0.0
220
0.0
230
1.0
  0
SOLID
  5
826
  8
0
  6
CONTINUOUS
 10
-502.18843367840759
 20
-7.2807579513993437
 30
0.0
 11
-508.86785925035019
 21
-7.2807579513993437
 31
0.0
 12
-508.46661932019367
 22
-7.4391513938653651
 32
0.0
 13
-508.46661932019367
 23
-7.4391513938653651
 33
0.0
210
0.0
220
0.0
230
-1.0
  0
SOLID
  5
827
  8
0
  6
CONTINUOUS
 10
502.06689411528458
 20
-7.4391513938653651
 30
0.0
 11
501.98296886890768
 21
-7.5485249043657632
 31
0.0
 12
507.5984879887061
 22
-7.5485249043657632
 32
0.0
 13
507.5984879887061
 23
-7.5485249043657632
 33
0.0
210
0.0
220
0.0
230
1.0
  0
SOLID
  5
828
  8
0
  6
CONTINUOUS
 10
-502.06689411528458
 20
-7.4391513938653651
 30
0.0
 11
-508.46661932019367
 21
-7.4391513938653651
 31
0.0
 12
-507.5984879887061
 22
-7.5485249043657632
 32
0.0
 13
-507.5984879887061
 23
-7.5485249043657632
 33
0.0
210
0.0
220
0.0
230
-1.0
  0
SOLID
  5
829
  8
0
  6
CONTINUOUS
 10
501.98296886890768
 20
-7.5485249043657632
 30
0.0
 11
501.94374981928547
 21
-7.5996361649321349
 31
0.0
 12
503.56797206372028
 22
-7.5996361649321349
 32
0.0
 13
503.56797206372028
 23
-7.5996361649321349
 33
0.0
210
0.0
220
0.0
230
1.0
  0
SOLID
  5
82A
  8
0
  6
CONTINUOUS
 10
-501.98296886890768
 20
-7.5485249043657632
 30
0.0
 11
-503.9562006313738
 21
-7.5485249043657632
 31
0.0
 12
-503.56797206372028
 22
-7.5996361649321349
 32
0.0
 13
-503.56797206372028
 23
-7.5996361649321349
 33
0.0
210
0.0
220
0.0
230
-1.0
  0
SOLID
  5
82B
  8
0
  6
CONTINUOUS
 10
501.94374981928547
 20
-7.5996361649321349
 30
0.0
 11
501.82876538383812
 21
-7.7494867986891123
 31
0.0
 12
503.2062006313742
 22
-7.7494867986891123
 32
0.0
 13
503.2062006313742
 23
-7.7494867986891123
 33
0.0
210
0.0
220
0.0
230
1.0
  0
SOLID
  5
82C
  8
0
  6
CONTINUOUS
 10
-501.94374981928547
 20
-7.5996361649321349
 30
0.0
 11
-503.56797206372028
 21
-7.5996361649321349
 31
0.0
 12
-503.2062006313742
 22
-7.7494867986891123
 32
0.0
 13
-503.2062006313742
 23
-7.7494867986891123
 33
0.0
210
0.0
220
0.0
230
-1.0
  0
SOLID
  5
82D
  8
0
  6
CONTINUOUS
 10
501.82876538383812
 20
-7.7494867986891123
 30
0.0
 11
501.79113712191298
 21
-7.7985249043657063
 31
0.0
 12
503.14229292782028
 22
-7.7985249043657063
 32
0.0
 13
503.14229292782028
 23
-7.7985249043657063
 33
0.0
210
0.0
220
0.0
230
1.0
  0
SOLID
  5
82E
  8
0
  6
CONTINUOUS
 10
-501.82876538383812
 20
-7.7494867986891123
 30
0.0
 11
-503.2062006313742
 21
-7.7494867986891123
 31
0.0
 12
-503.14229292782028
 22
-7.7985249043657063
 32
0.0
 13
-503.14229292782028
 23
-7.7985249043657063
 33
0.0
210
0.0
220
0.0
230
-1.0
  0
SOLID
  5
82F
  8
0
  6
CONTINUOUS
 10
501.79113712191298
 20
-7.7985249043657063
 30
0.0
 11
501.71270999716683
 21
-7.9878647325858054
 31
0.0
 12
502.89554045959437
 22
-7.9878647325858054
 32
0.0
 13
502.89554045959437
 23
-7.9878647325858054
 33
0.0
210
0.0
220
0.0
230
1.0
  0
SOLID
  5
830
  8
0
  6
CONTINUOUS
 10
-501.79113712191298
 20
-7.7985249043657063
 30
0.0
 11
-503.14229292782028
 21
-7.7985249043657063
 31
0.0
 12
-502.89554045959437
 22
-7.9878647325858054
 32
0.0
 13
-502.89554045959437
 23
-7.9878647325858054
 33
0.0
210
0.0
220
0.0
230
-1.0
  0
SOLID
  5
831
  8
0
  6
CONTINUOUS
 10
501.71270999716683
 20
-7.9878647325858054
 30
0.0
 11
501.58403034072637
 21
-8.2985249043657277
 31
0.0
 12
502.6571625256974
 22
-8.2985249043657277
 32
0.0
 13
502.6571625256974
 23
-8.2985249043657277
 33
0.0
210
0.0
220
0.0
230
1.0
  0
SOLID
  5
832
  8
0
  6
CONTINUOUS
 10
-501.71270999716683
 20
-7.9878647325858054
 30
0.0
 11
-502.89554045959437
 21
-7.9878647325858054
 31
0.0
 12
-502.6571625256974
 22
-8.2985249043657277
 32
0.0
 13
-502.6571625256974
 23
-8.2985249043657277
 33
0.0
210
0.0
220
0.0
230
-1.0
  0
SOLID
  5
833
  8
0
  6
CONTINUOUS
 10
501.58403034072637
 20
-8.2985249043657277
 30
0.0
 11
501.54138606565141
 21
-8.4014772916094032
 31
0.0
 12
502.61451825062238
 22
-8.4014772916094032
 32
0.0
 13
502.61451825062238
 23
-8.4014772916094032
 33
0.0
  0
SOLID
  5
834
  8
0
  6
CONTINUOUS
 10
-501.58403034072637
 20
-8.2985249043657277
 30
0.0
 11
-502.6571625256974
 21
-8.2985249043657277
 31
0.0
 12
-502.61451825062238
 22
-8.4014772916094032
 32
0.0
 13
-502.61451825062238
 23
-8.4014772916094032
 33
0.0
210
0.0
220
0.0
230
-1.0
  0
SOLID
  5
835
  8
0
  6
CONTINUOUS
 10
501.54138606565141
 20
-8.4014772916094032
 30
0.0
 11
501.50731189194119
 21
-8.6602963367118946
 31
0.0
 12
502.50731189194062
 22
-8.6602963367118946
 32
0.0
 13
502.50731189194062
 23
-8.6602963367118946
 33
0.0
210
0.0
220
0.0
230
1.0
  0
SOLID
  5
836
  8
0
  6
CONTINUOUS
 10
-501.54138606565141
 20
-8.4014772916094032
 30
0.0
 11
-502.61451825062238
 21
-8.4014772916094032
 31
0.0
 12
-502.50731189194062
 22
-8.6602963367118946
 32
0.0
 13
-502.50731189194062
 23
-8.6602963367118946
 33
0.0
210
0.0
220
0.0
230
-1.0
  0
SOLID
  5
837
  8
0
  6
CONTINUOUS
 10
501.50731189194119
 20
-8.6602963367118946
 30
0.0
 11
501.45620063137591
 21
-9.0485249043655571
 31
0.0
 12
502.50462070023508
 22
-9.0485249043655571
 32
0.0
 13
502.50462070023508
 23
-9.0485249043655571
 33
0.0
210
0.0
220
0.0
230
1.0
  0
SOLID
  5
838
  8
0
  6
CONTINUOUS
 10
-501.50731189194119
 20
-8.6602963367118946
 30
0.0
 11
-502.50731189194062
 21
-8.6602963367118946
 31
0.0
 12
-502.50462070023508
 22
-9.0485249043655571
 32
0.0
 13
-502.50462070023508
 23
-9.0485249043655571
 33
0.0
210
0.0
220
0.0
230
-1.0
  0
SOLID
  5
839
  8
0
  6
CONTINUOUS
 10
531.45620063137414
 20
13.39866483111464
 30
0.0
 11
531.40575478172093
 21
-16.03355460000682
 31
0.0
 12
532.45620063137414
 22
-16.03355460000682
 32
0.0
 13
532.45620063137414
 23
-16.03355460000682
 33
0.0
210
0.0
220
0.0
230
1.0
  0
SOLID
  5
83A
  8
0
  6
CONTINUOUS
 10
-531.45620063137414
 20
13.39866483111464
 30
0.0
 11
-532.40512690371145
 21
13.39866483111464
 31
0.0
 12
-532.45620063137414
 22
-16.03355460000682
 32
0.0
 13
-532.45620063137414
 23
-16.03355460000682
 33
0.0
210
0.0
220
0.0
230
-1.0
  0
SOLID
  5
83B
  8
0
  6
CONTINUOUS
 10
501.45620063137591
 20
-9.0485249043655571
 30
0.0
 11
501.4714896540346
 21
-16.03355460000682
 31
0.0
 12
502.45620063137579
 22
-16.03355460000682
 32
0.0
 13
502.45620063137579
 23
-16.03355460000682
 33
0.0
210
0.0
220
0.0
230
1.0
  0
SOLID
  5
83C
  8
0
  6
CONTINUOUS
 10
-501.45620063137591
 20
-9.0485249043655571
 30
0.0
 11
-502.50462070023508
 21
-9.0485249043655571
 31
0.0
 12
-502.45620063137579
 22
-16.03355460000682
 32
0.0
 13
-502.45620063137579
 23
-16.03355460000682
 33
0.0
210
0.0
220
0.0
230
-1.0
  0
SOLID
  5
83D
  8
0
  6
CONTINUOUS
 10
501.4714896540346
 20
-16.03355460000682
 30
0.0
 11
501.47174814375461
 21
-16.151649681099482
 31
0.0
 12
502.4717481437545
 22
-16.151649681099482
 32
0.0
 13
502.4717481437545
 23
-16.151649681099482
 33
0.0
210
0.0
220
0.0
230
1.0
  0
SOLID
  5
83E
  8
0
  6
CONTINUOUS
 10
-501.4714896540346
 20
-16.03355460000682
 30
0.0
 11
-502.45620063137579
 21
-16.03355460000682
 31
0.0
 12
-502.4717481437545
 22
-16.151649681099482
 32
0.0
 13
-502.4717481437545
 23
-16.151649681099482
 33
0.0
210
0.0
220
0.0
230
-1.0
  0
SOLID
  5
83F
  8
0
  6
CONTINUOUS
 10
531.40575478172093
 20
-16.03355460000682
 30
0.0
 11
531.40508937080949
 21
-16.421783167660621
 31
0.0
 12
532.40508937080892
 22
-16.421783167660621
 32
0.0
 13
532.40508937080892
 23
-16.421783167660621
 33
0.0
  0
SOLID
  5
840
  8
0
  6
CONTINUOUS
 10
-531.40575478172093
 20
-16.03355460000682
 30
0.0
 11
-532.45620063137414
 21
-16.03355460000682
 31
0.0
 12
-532.40508937080892
 22
-16.421783167660621
 32
0.0
 13
-532.40508937080892
 23
-16.421783167660621
 33
0.0
210
0.0
220
0.0
230
-1.0
  0
SOLID
  5
841
  8
0
  6
CONTINUOUS
 10
501.47174814375461
 20
-16.151649681099482
 30
0.0
 11
501.50731189194232
 21
-16.421783167660621
 31
0.0
 12
502.50731189194232
 22
-16.421783167660621
 32
0.0
 13
502.50731189194232
 23
-16.421783167660621
 33
0.0
210
0.0
220
0.0
230
1.0
  0
SOLID
  5
842
  8
0
  6
CONTINUOUS
 10
-501.47174814375461
 20
-16.151649681099482
 30
0.0
 11
-502.4717481437545
 21
-16.151649681099482
 31
0.0
 12
-502.50731189194232
 22
-16.421783167660621
 32
0.0
 13
-502.50731189194232
 23
-16.421783167660621
 33
0.0
210
0.0
220
0.0
230
-1.0
  0
SOLID
  5
843
  8
0
  6
CONTINUOUS
 10
531.40508937080949
 20
-16.421783167660621
 30
0.0
 11
531.29788301212773
 21
-16.680602212763109
 31
0.0
 12
532.3710151970987
 22
-16.680602212763109
 32
0.0
 13
532.3710151970987
 23
-16.680602212763109
 33
0.0
210
0.0
220
0.0
230
1.0
  0
SOLID
  5
844
  8
0
  6
CONTINUOUS
 10
-531.40508937080949
 20
-16.421783167660621
 30
0.0
 11
-532.40508937080892
 21
-16.421783167660621
 31
0.0
 12
-532.3710151970987
 22
-16.680602212763109
 32
0.0
 13
-532.3710151970987
 23
-16.680602212763109
 33
0.0
210
0.0
220
0.0
230
-1.0
  0
SOLID
  5
845
  8
0
  6
CONTINUOUS
 10
501.50731189194232
 20
-16.421783167660621
 30
0.0
 11
501.54138606565328
 21
-16.680602212763109
 31
0.0
 12
502.61451825062431
 22
-16.680602212763109
 32
0.0
 13
502.61451825062431
 23
-16.680602212763109
 33
0.0
210
0.0
220
0.0
230
1.0
  0
SOLID
  5
846
  8
0
  6
CONTINUOUS
 10
-501.50731189194232
 20
-16.421783167660621
 30
0.0
 11
-502.50731189194232
 21
-16.421783167660621
 31
0.0
 12
-502.61451825062431
 22
-16.680602212763109
 32
0.0
 13
-502.61451825062431
 23
-16.680602212763109
 33
0.0
210
0.0
220
0.0
230
-1.0
  0
SOLID
  5
847
  8
0
  6
CONTINUOUS
 10
531.29788301212773
 20
-16.680602212763109
 30
0.0
 11
531.25523873705265
 21
-16.783554600006791
 31
0.0
 12
532.32837092202362
 22
-16.783554600006791
 32
0.0
 13
532.32837092202362
 23
-16.783554600006791
 33
0.0
210
0.0
220
0.0
230
1.0
  0
SOLID
  5
848
  8
0
  6
CONTINUOUS
 10
-531.29788301212773
 20
-16.680602212763109
 30
0.0
 11
-532.3710151970987
 21
-16.680602212763109
 31
0.0
 12
-532.32837092202362
 22
-16.783554600006791
 32
0.0
 13
-532.32837092202362
 23
-16.783554600006791
 33
0.0
210
0.0
220
0.0
230
-1.0
  0
SOLID
  5
849
  8
0
  6
CONTINUOUS
 10
501.54138606565328
 20
-16.680602212763109
 30
0.0
 11
501.58403034072842
 21
-16.783554600006791
 31
0.0
 12
502.65716252569939
 22
-16.783554600006791
 32
0.0
 13
502.65716252569939
 23
-16.783554600006791
 33
0.0
210
0.0
220
0.0
230
1.0
  0
SOLID
  5
84A
  8
0
  6
CONTINUOUS
 10
-501.54138606565328
 20
-16.680602212763109
 30
0.0
 11
-502.61451825062431
 21
-16.680602212763109
 31
0.0
 12
-502.65716252569939
 22
-16.783554600006791
 32
0.0
 13
-502.65716252569939
 23
-16.783554600006791
 33
0.0
210
0.0
220
0.0
230
-1.0
  0
SOLID
  5
84B
  8
0
  6
CONTINUOUS
 10
531.25523873705265
 20
-16.783554600006791
 30
0.0
 11
531.01686080315585
 21
-17.09421477178671
 31
0.0
 12
532.19969126558328
 22
-17.09421477178671
 32
0.0
 13
532.19969126558328
 23
-17.09421477178671
 33
0.0
210
0.0
220
0.0
230
1.0
  0
SOLID
  5
84C
  8
0
  6
CONTINUOUS
 10
-531.25523873705265
 20
-16.783554600006791
 30
0.0
 11
-532.32837092202362
 21
-16.783554600006791
 31
0.0
 12
-532.19969126558328
 22
-17.09421477178671
 32
0.0
 13
-532.19969126558328
 23
-17.09421477178671
 33
0.0
210
0.0
220
0.0
230
-1.0
  0
SOLID
  5
84D
  8
0
  6
CONTINUOUS
 10
501.58403034072842
 20
-16.783554600006791
 30
0.0
 11
501.71270999716882
 21
-17.09421477178671
 31
0.0
 12
502.89554045959642
 22
-17.09421477178671
 32
0.0
 13
502.89554045959642
 23
-17.09421477178671
 33
0.0
  0
SOLID
  5
84E
  8
0
  6
CONTINUOUS
 10
-501.58403034072842
 20
-16.783554600006791
 30
0.0
 11
-502.65716252569939
 21
-16.783554600006791
 31
0.0
 12
-502.89554045959642
 22
-17.09421477178671
 32
0.0
 13
-502.89554045959642
 23
-17.09421477178671
 33
0.0
210
0.0
220
0.0
230
-1.0
  0
SOLID
  5
84F
  8
0
  6
CONTINUOUS
 10
531.01686080315585
 20
-17.09421477178671
 30
0.0
 11
530.77010833492977
 21
-17.283554600006809
 31
0.0
 12
532.12126414083696
 22
-17.283554600006809
 32
0.0
 13
532.12126414083696
 23
-17.283554600006809
 33
0.0
210
0.0
220
0.0
230
1.0
  0
SOLID
  5
850
  8
0
  6
CONTINUOUS
 10
-531.01686080315585
 20
-17.09421477178671
 30
0.0
 11
-532.19969126558328
 21
-17.09421477178671
 31
0.0
 12
-532.12126414083696
 22
-17.283554600006809
 32
0.0
 13
-532.12126414083696
 23
-17.283554600006809
 33
0.0
210
0.0
220
0.0
230
-1.0
  0
SOLID
  5
851
  8
0
  6
CONTINUOUS
 10
501.71270999716882
 20
-17.09421477178671
 30
0.0
 11
501.79113712191491
 21
-17.283554600006809
 31
0.0
 12
503.14229292782221
 22
-17.283554600006809
 32
0.0
 13
503.14229292782221
 23
-17.283554600006809
 33
0.0
210
0.0
220
0.0
230
1.0
  0
SOLID
  5
852
  8
0
  6
CONTINUOUS
 10
-501.71270999716882
 20
-17.09421477178671
 30
0.0
 11
-502.89554045959642
 21
-17.09421477178671
 31
0.0
 12
-503.14229292782221
 22
-17.283554600006809
 32
0.0
 13
-503.14229292782221
 23
-17.283554600006809
 33
0.0
210
0.0
220
0.0
230
-1.0
  0
SOLID
  5
853
  8
0
  6
CONTINUOUS
 10
530.77010833492977
 20
-17.283554600006809
 30
0.0
 11
530.70620063137585
 21
-17.3325927056834
 31
0.0
 12
532.08363587891199
 22
-17.3325927056834
 32
0.0
 13
532.08363587891199
 23
-17.3325927056834
 33
0.0
210
0.0
220
0.0
230
1.0
  0
SOLID
  5
854
  8
0
  6
CONTINUOUS
 10
-530.77010833492977
 20
-17.283554600006809
 30
0.0
 11
-532.12126414083696
 21
-17.283554600006809
 31
0.0
 12
-532.08363587891199
 22
-17.3325927056834
 32
0.0
 13
-532.08363587891199
 23
-17.3325927056834
 33
0.0
210
0.0
220
0.0
230
-1.0
  0
SOLID
  5
855
  8
0
  6
CONTINUOUS
 10
501.79113712191491
 20
-17.283554600006809
 30
0.0
 11
501.82876538383999
 21
-17.3325927056834
 31
0.0
 12
503.20620063137602
 22
-17.3325927056834
 32
0.0
 13
503.20620063137602
 23
-17.3325927056834
 33
0.0
210
0.0
220
0.0
230
1.0
  0
SOLID
  5
856
  8
0
  6
CONTINUOUS
 10
-501.79113712191491
 20
-17.283554600006809
 30
0.0
 11
-503.14229292782221
 21
-17.283554600006809
 31
0.0
 12
-503.20620063137602
 22
-17.3325927056834
 32
0.0
 13
-503.20620063137602
 23
-17.3325927056834
 33
0.0
210
0.0
220
0.0
230
-1.0
  0
SOLID
  5
857
  8
0
  6
CONTINUOUS
 10
530.70620063137585
 20
-17.3325927056834
 30
0.0
 11
530.34442919902949
 21
-17.482443339440511
 31
0.0
 12
531.96865144346452
 22
-17.482443339440511
 32
0.0
 13
531.96865144346452
 23
-17.482443339440511
 33
0.0
210
0.0
220
0.0
230
1.0
  0
SOLID
  5
858
  8
0
  6
CONTINUOUS
 10
-530.70620063137585
 20
-17.3325927056834
 30
0.0
 11
-532.08363587891199
 21
-17.3325927056834
 31
0.0
 12
-531.96865144346452
 22
-17.482443339440511
 32
0.0
 13
-531.96865144346452
 23
-17.482443339440511
 33
0.0
210
0.0
220
0.0
230
-1.0
  0
SOLID
  5
859
  8
0
  6
CONTINUOUS
 10
501.82876538383999
 20
-17.3325927056834
 30
0.0
 11
501.94374981928758
 21
-17.482443339440511
 31
0.0
 12
503.56797206372221
 22
-17.482443339440511
 32
0.0
 13
503.56797206372221
 23
-17.482443339440511
 33
0.0
210
0.0
220
0.0
230
1.0
  0
SOLID
  5
85A
  8
0
  6
CONTINUOUS
 10
-501.82876538383999
 20
-17.3325927056834
 30
0.0
 11
-503.20620063137602
 21
-17.3325927056834
 31
0.0
 12
-503.56797206372221
 22
-17.482443339440511
 32
0.0
 13
-503.56797206372221
 23
-17.482443339440511
 33
0.0
210
0.0
220
0.0
230
-1.0
  0
SOLID
  5
85B
  8
0
  6
CONTINUOUS
 10
530.34442919902892
 20
-17.482443339440511
 30
0.0
 11
529.95620063137596
 21
-17.533554600006749
 31
0.0
 12
531.92943239384226
 22
-17.533554600006749
 32
0.0
 13
531.92943239384226
 23
-17.533554600006749
 33
0.0
210
0.0
220
0.0
230
1.0
  0
SOLID
  5
85C
  8
0
  6
CONTINUOUS
 10
-530.34442919902892
 20
-17.482443339440511
 30
0.0
 11
-531.96865144346452
 21
-17.482443339440511
 31
0.0
 12
-531.92943239384226
 22
-17.533554600006749
 32
0.0
 13
-531.92943239384226
 23
-17.533554600006749
 33
0.0
210
0.0
220
0.0
230
-1.0
  0
SOLID
  5
85D
  8
0
  6
CONTINUOUS
 10
501.94374981928758
 20
-17.482443339440511
 30
0.0
 11
501.98296886890961
 21
-17.533554600006749
 31
0.0
 12
529.95620063137596
 22
-17.533554600006749
 32
0.0
 13
529.95620063137596
 23
-17.533554600006749
 33
0.0
  0
SOLID
  5
85E
  8
0
  6
CONTINUOUS
 10
-501.94374981928758
 20
-17.482443339440511
 30
0.0
 11
-503.56797206372221
 21
-17.482443339440511
 31
0.0
 12
-529.95620063137596
 22
-17.533554600006749
 32
0.0
 13
-529.95620063137596
 23
-17.533554600006749
 33
0.0
210
0.0
220
0.0
230
-1.0
  0
SOLID
  5
85F
  8
0
  6
CONTINUOUS
 10
501.98296886890961
 20
-17.533554600006749
 30
0.0
 11
502.18843367840958
 21
-17.801321552973171
 31
0.0
 12
531.72396758434229
 22
-17.801321552973171
 32
0.0
 13
531.72396758434229
 23
-17.801321552973171
 33
0.0
210
0.0
220
0.0
230
1.0
  0
SOLID
  5
860
  8
0
  6
CONTINUOUS
 10
-501.98296886890961
 20
-17.533554600006749
 30
0.0
 11
-531.92943239384226
 21
-17.533554600006749
 31
0.0
 12
-531.72396758434229
 22
-17.801321552973171
 32
0.0
 13
-531.72396758434229
 23
-17.801321552973171
 33
0.0
210
0.0
220
0.0
230
-1.0
  0
SOLID
  5
861
  8
0
  6
CONTINUOUS
 10
502.18843367840958
 20
-17.801321552973171
 30
0.0
 11
502.70620063137602
 21
-18.19861810946788
 31
0.0
 12
531.20620063137585
 22
-18.19861810946788
 32
0.0
 13
531.20620063137585
 23
-18.19861810946788
 33
0.0
210
0.0
220
0.0
230
1.0
  0
SOLID
  5
862
  8
0
  6
CONTINUOUS
 10
-502.18843367840958
 20
-17.801321552973171
 30
0.0
 11
-531.72396758434229
 21
-17.801321552973171
 31
0.0
 12
-531.20620063137585
 22
-18.19861810946788
 32
0.0
 13
-531.20620063137585
 23
-18.19861810946788
 33
0.0
210
0.0
220
0.0
230
-1.0
  0
SOLID
  5
863
  8
0
  6
CONTINUOUS
 10
502.70620063137602
 20
-18.19861810946788
 30
0.0
 11
503.30915301861972
 21
-18.44836916572946
 31
0.0
 12
530.60324824413215
 22
-18.44836916572946
 32
0.0
 13
530.60324824413215
 23
-18.44836916572946
 33
0.0
  0
SOLID
  5
864
  8
0
  6
CONTINUOUS
 10
-502.70620063137602
 20
-18.19861810946788
 30
0.0
 11
-531.20620063137585
 21
-18.19861810946788
 31
0.0
 12
-530.60324824413215
 22
-18.44836916572946
 32
0.0
 13
-530.60324824413215
 23
-18.44836916572946
 33
0.0
210
0.0
220
0.0
230
-1.0
  0
SOLID
  5
865
  8
0
  6
CONTINUOUS
 10
503.30915301861972
 20
-18.44836916572946
 30
0.0
 11
503.95620063137608
 21
-18.533554600006791
 31
0.0
 12
529.95620063137596
 22
-18.533554600006791
 32
0.0
 13
529.95620063137596
 23
-18.533554600006791
 33
0.0
210
0.0
220
0.0
230
1.0
  0
SOLID
  5
866
  8
0
  6
CONTINUOUS
 10
-503.30915301861972
 20
-18.44836916572946
 30
0.0
 11
-530.60324824413215
 21
-18.44836916572946
 31
0.0
 12
-529.95620063137596
 22
-18.533554600006791
 32
0.0
 13
-529.95620063137596
 23
-18.533554600006791
 33
0.0
210
0.0
220
0.0
230
-1.0
  0
LINE
  5
867
  8
0
  6
CONTINUOUS
 10
501.31943839852278
 20
182.67832363823669
 30
0.0
 11
500.73283882398169
 21
182.60852958406679
 31
0.0
  0
LINE
  5
868
  8
0
  6
CONTINUOUS
 10
529.95620063137596
 20
182.67832363823669
 30
0.0
 11
530.48633910536842
 21
182.60852958406679
 31
0.0
  0
LINE
  5
869
  8
0
  6
CONTINUOUS
 10
500.73283882398169
 20
182.60852958406679
 30
0.0
 11
500.69135425742229
 21
182.59313820395741
 31
0.0
  0
LINE
  5
86A
  8
0
  6
CONTINUOUS
 10
530.48633910536842
 20
182.60852958406679
 30
0.0
 11
530.60324824413215
 21
182.59313820395741
 31
0.0
  0
LINE
  5
86B
  8
0
  6
CONTINUOUS
 10
500.69135425742229
 20
182.59313820395741
 30
0.0
 11
500.17899217942602
 21
182.4030443895553
 31
0.0
  0
LINE
  5
86C
  8
0
  6
CONTINUOUS
 10
530.60324824413215
 20
182.59313820395741
 30
0.0
 11
531.06217530898516
 21
182.4030443895553
 31
0.0
  0
LINE
  5
86D
  8
0
  6
CONTINUOUS
 10
500.17899217942602
 20
182.4030443895553
 30
0.0
 11
500.09029974455842
 21
182.34338714769589
 31
0.0
  0
LINE
  5
86E
  8
0
  6
CONTINUOUS
 10
531.06217530898516
 20
182.4030443895553
 30
0.0
 11
531.20620063137585
 21
182.34338714769589
 31
0.0
  0
LINE
  5
86F
  8
0
  6
CONTINUOUS
 10
500.09029974455842
 20
182.34338714769589
 30
0.0
 11
499.68882262702499
 21
182.07334137053971
 31
0.0
  0
LINE
  5
870
  8
0
  6
CONTINUOUS
 10
531.20620063137585
 20
182.34338714769589
 30
0.0
 11
531.55813113999454
 21
182.07334137053971
 31
0.0
  0
LINE
  5
871
  8
0
  6
CONTINUOUS
 10
499.68882262702499
 20
182.07334137053971
 30
0.0
 11
499.57220396022888
 21
181.94609059120111
 31
0.0
  0
LINE
  5
872
  8
0
  6
CONTINUOUS
 10
531.55813113999454
 20
182.07334137053971
 30
0.0
 11
531.72396758434229
 21
181.94609059120111
 31
0.0
  0
LINE
  5
873
  8
0
  6
CONTINUOUS
 10
499.57220396022888
 20
181.94609059120111
 30
0.0
 11
499.3268095883509
 21
181.67832363823669
 31
0.0
  0
LINE
  5
874
  8
0
  6
CONTINUOUS
 10
531.72396758434229
 20
181.94609059120111
 30
0.0
 11
531.92943239384078
 21
181.67832363823669
 31
0.0
  0
LINE
  5
875
  8
0
  6
CONTINUOUS
 10
499.3268095883509
 20
181.67832363823669
 30
0.0
 11
499.28969890301278
 21
181.63782957531521
 31
0.0
  0
LINE
  5
876
  8
0
  6
CONTINUOUS
 10
501.31943839852278
 20
181.67832363823669
 30
0.0
 11
500.97909708487208
 21
181.63782957531521
 31
0.0
  0
LINE
  5
877
  8
0
  6
CONTINUOUS
 10
499.28969890301278
 20
181.63782957531521
 30
0.0
 11
499.28893474755893
 21
181.63644720573481
 31
0.0
  0
LINE
  5
878
  8
0
  6
CONTINUOUS
 10
500.97909708487208
 20
181.63782957531521
 30
0.0
 11
500.9674786537982
 21
181.63644720573481
 31
0.0
  0
LINE
  5
879
  8
0
  6
CONTINUOUS
 10
501.31943839852278
 20
181.67832363823669
 30
0.0
 11
530.34442919902972
 21
181.6272123776684
 31
0.0
  0
LINE
  5
87A
  8
0
  6
CONTINUOUS
 10
531.92943239384078
 20
181.67832363823669
 30
0.0
 11
531.96865144346452
 21
181.6272123776684
 31
0.0
  0
LINE
  5
87B
  8
0
  6
CONTINUOUS
 10
499.28893474755893
 20
181.63644720573481
 30
0.0
 11
499.22078106377268
 21
181.5131560890278
 31
0.0
  0
LINE
  5
87C
  8
0
  6
CONTINUOUS
 10
500.9674786537982
 20
181.63644720573481
 30
0.0
 11
500.63517066706459
 21
181.5131560890278
 31
0.0
  0
LINE
  5
87D
  8
0
  6
CONTINUOUS
 10
530.34442919902972
 20
181.6272123776684
 30
0.0
 11
530.70620063137585
 21
181.47736174391139
 31
0.0
  0
LINE
  5
87E
  8
0
  6
CONTINUOUS
 10
531.96865144346452
 20
181.6272123776684
 30
0.0
 11
532.08363587891199
 21
181.47736174391139
 31
0.0
  0
LINE
  5
87F
  8
0
  6
CONTINUOUS
 10
530.70620063137585
 20
181.47736174391139
 30
0.0
 11
530.77010833492977
 21
181.4283236382347
 31
0.0
  0
LINE
  5
880
  8
0
  6
CONTINUOUS
 10
532.08363587891199
 20
181.47736174391139
 30
0.0
 11
532.12126414083696
 21
181.4283236382347
 31
0.0
  0
LINE
  5
881
  8
0
  6
CONTINUOUS
 10
499.22078106377268
 20
181.5131560890278
 30
0.0
 11
499.11142780669383
 21
181.3153342776184
 31
0.0
  0
LINE
  5
882
  8
0
  6
CONTINUOUS
 10
500.63517066706459
 20
181.5131560890278
 30
0.0
 11
500.34106893562421
 21
181.3153342776184
 31
0.0
  0
LINE
  5
883
  8
0
  6
CONTINUOUS
 10
530.77010833492977
 20
181.4283236382347
 30
0.0
 11
531.01686080315574
 21
181.23898381001459
 31
0.0
  0
LINE
  5
884
  8
0
  6
CONTINUOUS
 10
532.12126414083696
 20
181.4283236382347
 30
0.0
 11
532.19969126558328
 21
181.23898381001459
 31
0.0
  0
LINE
  5
885
  8
0
  6
CONTINUOUS
 10
499.11142780669383
 20
181.3153342776184
 30
0.0
 11
499.00390617764077
 21
181.12082591094381
 31
0.0
  0
LINE
  5
886
  8
0
  6
CONTINUOUS
 10
500.34106893562421
 20
181.3153342776184
 30
0.0
 11
500.1628122167246
 21
181.12082591094381
 31
0.0
  0
LINE
  5
887
  8
0
  6
CONTINUOUS
 10
499.00390617764077
 20
181.12082591094381
 30
0.0
 11
498.98555335064412
 21
181.05402720048369
 31
0.0
  0
LINE
  5
888
  8
0
  6
CONTINUOUS
 10
500.1628122167246
 20
181.12082591094381
 30
0.0
 11
500.1015947012167
 21
181.05402720048369
 31
0.0
  0
LINE
  5
889
  8
0
  6
CONTINUOUS
 10
531.01686080315574
 20
181.23898381001459
 30
0.0
 11
531.25523873705265
 21
180.9283236382347
 31
0.0
  0
LINE
  5
88A
  8
0
  6
CONTINUOUS
 10
532.19969126558328
 20
181.23898381001459
 30
0.0
 11
532.32837092202362
 21
180.9283236382347
 31
0.0
  0
LINE
  5
88B
  8
0
  6
CONTINUOUS
 10
531.25523873705265
 20
180.9283236382347
 30
0.0
 11
531.29788301212773
 21
180.825371250991
 31
0.0
  0
LINE
  5
88C
  8
0
  6
CONTINUOUS
 10
532.32837092202362
 20
180.9283236382347
 30
0.0
 11
532.3710151970987
 21
180.825371250991
 31
0.0
  0
LINE
  5
88D
  8
0
  6
CONTINUOUS
 10
498.98555335064412
 20
181.05402720048369
 30
0.0
 11
498.9003258478055
 21
180.7438250018609
 31
0.0
  0
LINE
  5
88E
  8
0
  6
CONTINUOUS
 10
500.1015947012167
 20
181.05402720048369
 30
0.0
 11
499.93011906599338
 21
180.7438250018609
 31
0.0
  0
LINE
  5
88F
  8
0
  6
CONTINUOUS
 10
531.29788301212773
 20
180.825371250991
 30
0.0
 11
531.40508937080949
 21
180.5665522058886
 31
0.0
  0
LINE
  5
890
  8
0
  6
CONTINUOUS
 10
532.3710151970987
 20
180.825371250991
 30
0.0
 11
532.40508937080961
 21
180.5665522058886
 31
0.0
  0
LINE
  5
891
  8
0
  6
CONTINUOUS
 10
498.9003258478055
 20
180.7438250018609
 30
0.0
 11
498.8474017572737
 21
180.55119740283121
 31
0.0
  0
LINE
  5
892
  8
0
  6
CONTINUOUS
 10
499.93011906599338
 20
180.7438250018609
 30
0.0
 11
499.90070713124197
 21
180.55119740283121
 31
0.0
  0
LINE
  5
893
  8
0
  6
CONTINUOUS
 10
531.40508937080949
 20
180.5665522058886
 30
0.0
 11
531.45620063137585
 21
180.1783236382347
 31
0.0
  0
LINE
  5
894
  8
0
  6
CONTINUOUS
 10
532.40508937080961
 20
180.5665522058886
 30
0.0
 11
532.45620063137608
 21
180.1783236382347
 31
0.0
  0
LINE
  5
895
  8
0
  6
CONTINUOUS
 10
496.46019852108799
 20
158.01827263549259
 30
0.0
 11
496.4374251721182
 21
157.86912312965481
 31
0.0
  0
LINE
  5
896
  8
0
  6
CONTINUOUS
 10
496.4374251721182
 20
157.86912312965481
 30
0.0
 11
495.44861051561878
 21
158.01827263549259
 31
0.0
  0
LINE
  5
897
  8
0
  6
CONTINUOUS
 10
498.8474017572737
 20
180.55119740283121
 30
0.0
 11
495.44861051561878
 21
158.01827263549259
 31
0.0
  0
LINE
  5
898
  8
0
  6
CONTINUOUS
 10
499.90070713124197
 20
180.55119740283121
 30
0.0
 11
496.46019852108799
 21
158.01827263549259
 31
0.0
  0
LINE
  5
899
  8
0
  6
CONTINUOUS
 10
531.45620063137585
 20
180.1783236382347
 30
0.0
 11
531.42523947041582
 21
135.53422596886361
 31
0.0
  0
LINE
  5
89A
  8
0
  6
CONTINUOUS
 10
532.45620063137608
 20
180.1783236382347
 30
0.0
 11
532.45620063137608
 21
135.53422596886361
 31
0.0
  0
LINE
  5
89B
  8
0
  6
CONTINUOUS
 10
531.42523947041582
 20
135.53422596886361
 30
0.0
 11
531.42502849639948
 21
135.2300143600703
 31
0.0
  0
LINE
  5
89C
  8
0
  6
CONTINUOUS
 10
532.45620063137608
 20
135.53422596886361
 30
0.0
 11
532.4250284964005
 21
135.2300143600703
 31
0.0
  0
LINE
  5
89D
  8
0
  6
CONTINUOUS
 10
531.42502849639948
 20
135.2300143600703
 30
0.0
 11
531.36088184408891
 21
135.02720662087501
 31
0.0
  0
LINE
  5
89E
  8
0
  6
CONTINUOUS
 10
532.4250284964005
 20
135.2300143600703
 30
0.0
 11
532.40424707308341
 21
135.02720662087501
 31
0.0
  0
LINE
  5
89F
  8
0
  6
CONTINUOUS
 10
531.36088184408891
 20
135.02720662087501
 30
0.0
 11
531.33280769414148
 21
134.9384466517173
 31
0.0
  0
LINE
  5
8A0
  8
0
  6
CONTINUOUS
 10
532.40424707308341
 20
135.02720662087501
 30
0.0
 11
532.37617292313587
 21
134.9384466517173
 31
0.0
  0
LINE
  5
8A1
  8
0
  6
CONTINUOUS
 10
531.33280769414148
 20
134.9384466517173
 30
0.0
 11
531.18337118366014
 21
134.67164122774969
 31
0.0
  0
LINE
  5
8A2
  8
0
  6
CONTINUOUS
 10
532.37617292313587
 20
134.9384466517173
 30
0.0
 11
532.29178425614634
 21
134.67164122774969
 31
0.0
  0
LINE
  5
8A3
  8
0
  6
CONTINUOUS
 10
531.18337118366014
 20
134.67164122774969
 30
0.0
 11
531.07021579735942
 21
134.54126044028661
 31
0.0
  0
LINE
  5
8A4
  8
0
  6
CONTINUOUS
 10
532.29178425614634
 20
134.67164122774969
 30
0.0
 11
532.25054573598641
 21
134.54126044028661
 31
0.0
  0
LINE
  5
8A5
  8
0
  6
CONTINUOUS
 10
531.07021579735942
 20
134.54126044028661
 30
0.0
 11
530.98292997172177
 21
134.44068728108459
 31
0.0
  0
LINE
  5
8A6
  8
0
  6
CONTINUOUS
 10
532.25054573598641
 20
134.54126044028661
 30
0.0
 11
532.19421516468185
 21
134.44068728108459
 31
0.0
  0
LINE
  5
8A7
  8
0
  6
CONTINUOUS
 10
530.98292997172177
 20
134.44068728108459
 30
0.0
 11
530.62938753591334
 21
134.09658473367401
 31
0.0
  0
LINE
  5
8A8
  8
0
  6
CONTINUOUS
 10
532.19421516468185
 20
134.44068728108459
 30
0.0
 11
532.00148488518425
 21
134.09658473367401
 31
0.0
  0
LINE
  5
8A9
  8
0
  6
CONTINUOUS
 10
530.62938753591334
 20
134.09658473367401
 30
0.0
 11
528.91091637756415
 21
132.4239982395315
 31
0.0
  0
LINE
  5
8AA
  8
0
  6
CONTINUOUS
 10
532.00148488518425
 20
134.09658473367401
 30
0.0
 11
530.28301372683495
 21
132.4239982395315
 31
0.0
  0
LINE
  5
8AB
  8
0
  6
CONTINUOUS
 10
528.91091637756415
 20
132.4239982395315
 30
0.0
 11
528.71818609806644
 21
132.0798956921208
 31
0.0
  0
LINE
  5
8AC
  8
0
  6
CONTINUOUS
 10
530.28301372683495
 20
132.4239982395315
 30
0.0
 11
529.92947129102618
 21
132.0798956921208
 31
0.0
  0
LINE
  5
8AD
  8
0
  6
CONTINUOUS
 10
528.71818609806644
 20
132.0798956921208
 30
0.0
 11
528.661855526762
 21
131.9793225329189
 31
0.0
  0
LINE
  5
8AE
  8
0
  6
CONTINUOUS
 10
529.92947129102618
 20
132.0798956921208
 30
0.0
 11
529.84218546538875
 21
131.9793225329189
 31
0.0
  0
LINE
  5
8AF
  8
0
  6
CONTINUOUS
 10
528.661855526762
 20
131.9793225329189
 30
0.0
 11
528.62061700660195
 21
131.84894174545579
 31
0.0
  0
LINE
  5
8B0
  8
0
  6
CONTINUOUS
 10
529.84218546538875
 20
131.9793225329189
 30
0.0
 11
529.72903007908826
 21
131.84894174545579
 31
0.0
  0
LINE
  5
8B1
  8
0
  6
CONTINUOUS
 10
528.62061700660195
 20
131.84894174545579
 30
0.0
 11
528.53622833961242
 21
131.58213632148821
 31
0.0
  0
LINE
  5
8B2
  8
0
  6
CONTINUOUS
 10
529.72903007908826
 20
131.84894174545579
 30
0.0
 11
529.57959356860692
 21
131.58213632148821
 31
0.0
  0
LINE
  5
8B3
  8
0
  6
CONTINUOUS
 10
528.53622833961242
 20
131.58213632148821
 30
0.0
 11
528.50815418966499
 21
131.49337635233061
 31
0.0
  0
LINE
  5
8B4
  8
0
  6
CONTINUOUS
 10
529.57959356860692
 20
131.58213632148821
 30
0.0
 11
529.55151941865938
 21
131.49337635233061
 31
0.0
  0
LINE
  5
8B5
  8
0
  6
CONTINUOUS
 10
528.50815418966499
 20
131.49337635233061
 30
0.0
 11
528.48737276634859
 21
131.29056861313509
 31
0.0
  0
LINE
  5
8B6
  8
0
  6
CONTINUOUS
 10
529.55151941865938
 20
131.49337635233061
 30
0.0
 11
529.48737276634859
 21
131.29056861313509
 31
0.0
  0
LINE
  5
8B7
  8
0
  6
CONTINUOUS
 10
528.48737276634859
 20
131.29056861313509
 30
0.0
 11
528.45620063137414
 21
130.98635700434201
 31
0.0
  0
LINE
  5
8B8
  8
0
  6
CONTINUOUS
 10
529.48737276634859
 20
131.29056861313509
 30
0.0
 11
529.48712318741457
 21
130.98635700434201
 31
0.0
  0
LINE
  5
8B9
  8
0
  6
CONTINUOUS
 10
528.45620063137414
 20
130.98635700434201
 30
0.0
 11
528.45620063137414
 21
93.294872524741464
 31
0.0
  0
LINE
  5
8BA
  8
0
  6
CONTINUOUS
 10
529.48712318741457
 20
130.98635700434201
 30
0.0
 11
529.45620063137414
 21
93.294872524741464
 31
0.0
  0
LINE
  5
8BB
  8
0
  6
CONTINUOUS
 10
528.45620063137414
 20
93.294872524741464
 30
0.0
 11
528.50731189194062
 21
92.906643957087994
 31
0.0
  0
LINE
  5
8BC
  8
0
  6
CONTINUOUS
 10
529.45620063137414
 20
93.294872524741464
 30
0.0
 11
529.50731189194028
 21
92.906643957087994
 31
0.0
  0
LINE
  5
8BD
  8
0
  6
CONTINUOUS
 10
528.50731189194062
 20
92.906643957087994
 30
0.0
 11
528.54138606565152
 21
92.647824911985637
 31
0.0
  0
LINE
  5
8BE
  8
0
  6
CONTINUOUS
 10
529.50731189194028
 20
92.906643957087994
 30
0.0
 11
529.61451825062215
 21
92.647824911985637
 31
0.0
  0
LINE
  5
8BF
  8
0
  6
CONTINUOUS
 10
528.54138606565152
 20
92.647824911985637
 30
0.0
 11
528.58403034072637
 21
92.544872524741905
 31
0.0
  0
LINE
  5
8C0
  8
0
  6
CONTINUOUS
 10
529.61451825062215
 20
92.647824911985637
 30
0.0
 11
529.65716252569723
 21
92.544872524741905
 31
0.0
  0
LINE
  5
8C1
  8
0
  6
CONTINUOUS
 10
528.58403034072637
 20
92.544872524741905
 30
0.0
 11
528.79113712191236
 21
92.044872524742345
 31
0.0
  0
LINE
  5
8C2
  8
0
  6
CONTINUOUS
 10
529.65716252569723
 20
92.544872524741905
 30
0.0
 11
530.14026694644599
 21
92.044872524742345
 31
0.0
  0
LINE
  5
8C3
  8
0
  6
CONTINUOUS
 10
528.79113712191236
 20
92.044872524742345
 30
0.0
 11
529.18843367840657
 21
91.527105571776204
 31
0.0
  0
LINE
  5
8C4
  8
0
  6
CONTINUOUS
 10
530.14026694644599
 20
92.044872524742345
 30
0.0
 11
530.64053795423752
 21
91.527105571776204
 31
0.0
  0
LINE
  5
8C5
  8
0
  6
CONTINUOUS
 10
529.18843367840657
 20
91.527105571776204
 30
0.0
 11
530.27186330850896
 21
90.40578522821329
 31
0.0
  0
LINE
  5
8C6
  8
0
  6
CONTINUOUS
 10
530.64053795423752
 20
91.527105571776204
 30
0.0
 11
531.72396758433979
 21
90.40578522821329
 31
0.0
  0
LINE
  5
8C7
  8
0
  6
CONTINUOUS
 10
530.27186330850896
 20
90.40578522821329
 30
0.0
 11
530.77213431630059
 21
89.888018275246992
 31
0.0
  0
LINE
  5
8C8
  8
0
  6
CONTINUOUS
 10
531.72396758433979
 20
90.40578522821329
 30
0.0
 11
532.12126414083377
 21
89.888018275246992
 31
0.0
  0
LINE
  5
8C9
  8
0
  6
CONTINUOUS
 10
530.77213431630059
 20
89.888018275246992
 30
0.0
 11
531.25523873704924
 21
89.388018275247504
 31
0.0
  0
LINE
  5
8CA
  8
0
  6
CONTINUOUS
 10
532.12126414083377
 20
89.888018275246992
 30
0.0
 11
532.32837092201987
 21
89.388018275247504
 31
0.0
  0
LINE
  5
8CB
  8
0
  6
CONTINUOUS
 10
531.25523873704924
 20
89.388018275247504
 30
0.0
 11
531.29788301212432
 21
89.285065888003629
 31
0.0
  0
LINE
  5
8CC
  8
0
  6
CONTINUOUS
 10
532.32837092201987
 20
89.388018275247504
 30
0.0
 11
532.37101519709495
 21
89.285065888003629
 31
0.0
  0
LINE
  5
8CD
  8
0
  6
CONTINUOUS
 10
531.29788301212432
 20
89.285065888003629
 30
0.0
 11
531.40508937080608
 21
89.026246842901344
 31
0.0
  0
LINE
  5
8CE
  8
0
  6
CONTINUOUS
 10
532.37101519709495
 20
89.285065888003629
 30
0.0
 11
532.40508937080597
 21
89.026246842901344
 31
0.0
  0
LINE
  5
8CF
  8
0
  6
CONTINUOUS
 10
531.40508937080608
 20
89.026246842901344
 30
0.0
 11
531.45620063137233
 21
88.638018275247816
 31
0.0
  0
LINE
  5
8D0
  8
0
  6
CONTINUOUS
 10
532.40508937080597
 20
89.026246842901344
 30
0.0
 11
532.45620063137244
 21
88.638018275247816
 31
0.0
  0
LINE
  5
8D1
  8
0
  6
CONTINUOUS
 10
531.45620063137233
 20
88.638018275247816
 30
0.0
 11
531.4057800043729
 21
60.294872524738281
 31
0.0
  0
LINE
  5
8D2
  8
0
  6
CONTINUOUS
 10
532.45620063137244
 20
88.638018275247816
 30
0.0
 11
532.45620063137244
 21
60.294872524738281
 31
0.0
  0
LINE
  5
8D3
  8
0
  6
CONTINUOUS
 10
531.4057800043729
 20
60.294872524738281
 30
0.0
 11
531.40508937080779
 21
59.906643957084739
 31
0.0
  0
LINE
  5
8D4
  8
0
  6
CONTINUOUS
 10
532.45620063137244
 20
60.294872524738281
 30
0.0
 11
532.40508937080699
 21
59.906643957084739
 31
0.0
  0
LINE
  5
8D5
  8
0
  6
CONTINUOUS
 10
531.40508937080779
 20
59.906643957084739
 30
0.0
 11
531.29788301212579
 21
59.647824911982191
 31
0.0
  0
LINE
  5
8D6
  8
0
  6
CONTINUOUS
 10
532.40508937080699
 20
59.906643957084739
 30
0.0
 11
532.37101519709688
 21
59.647824911982191
 31
0.0
  0
LINE
  5
8D7
  8
0
  6
CONTINUOUS
 10
531.29788301212579
 20
59.647824911982191
 30
0.0
 11
531.25523873705083
 21
59.544872524738651
 31
0.0
  0
LINE
  5
8D8
  8
0
  6
CONTINUOUS
 10
532.37101519709688
 20
59.647824911982191
 30
0.0
 11
532.32837092202192
 21
59.544872524738651
 31
0.0
  0
LINE
  5
8D9
  8
0
  6
CONTINUOUS
 10
531.25523873705083
 20
59.544872524738651
 30
0.0
 11
531.01686080315415
 21
59.23421235295887
 31
0.0
  0
LINE
  5
8DA
  8
0
  6
CONTINUOUS
 10
532.32837092202192
 20
59.544872524738651
 30
0.0
 11
532.19969126558158
 21
59.23421235295887
 31
0.0
  0
LINE
  5
8DB
  8
0
  6
CONTINUOUS
 10
531.01686080315415
 20
59.23421235295887
 30
0.0
 11
530.8275209749338
 21
59.044872524738558
 31
0.0
  0
LINE
  5
8DC
  8
0
  6
CONTINUOUS
 10
532.19969126558158
 20
59.23421235295887
 30
0.0
 11
532.12126414083536
 21
59.044872524738558
 31
0.0
  0
LINE
  5
8DD
  8
0
  6
CONTINUOUS
 10
530.8275209749338
 20
59.044872524738558
 30
0.0
 11
530.30975402196759
 21
58.527105571772331
 31
0.0
  0
LINE
  5
8DE
  8
0
  6
CONTINUOUS
 10
532.12126414083536
 20
59.044872524738558
 30
0.0
 11
531.72396758434058
 21
58.527105571772331
 31
0.0
  0
LINE
  5
8DF
  8
0
  6
CONTINUOUS
 10
530.30975402196759
 20
58.527105571772331
 30
0.0
 11
529.18843367840964
 21
57.405785228214476
 31
0.0
  0
LINE
  5
8E0
  8
0
  6
CONTINUOUS
 10
531.72396758434058
 20
58.527105571772331
 30
0.0
 11
530.60264724078274
 21
57.405785228214476
 31
0.0
  0
LINE
  5
8E1
  8
0
  6
CONTINUOUS
 10
529.18843367840964
 20
57.405785228214476
 30
0.0
 11
528.79113712191486
 21
56.88801827524798
 31
0.0
  0
LINE
  5
8E2
  8
0
  6
CONTINUOUS
 10
530.60264724078274
 20
57.405785228214476
 30
0.0
 11
530.08488028781642
 21
56.88801827524798
 31
0.0
  0
LINE
  5
8E3
  8
0
  6
CONTINUOUS
 10
528.79113712191486
 20
56.88801827524798
 30
0.0
 11
528.71270999716876
 21
56.698678447027959
 31
0.0
  0
LINE
  5
8E4
  8
0
  6
CONTINUOUS
 10
530.08488028781642
 20
56.88801827524798
 30
0.0
 11
529.89554045959642
 21
56.698678447027959
 31
0.0
  0
LINE
  5
8E5
  8
0
  6
CONTINUOUS
 10
528.71270999716876
 20
56.698678447027959
 30
0.0
 11
528.58403034072842
 21
56.388018275248029
 31
0.0
  0
LINE
  5
8E6
  8
0
  6
CONTINUOUS
 10
529.89554045959642
 20
56.698678447027959
 30
0.0
 11
529.65716252569916
 21
56.388018275248029
 31
0.0
  0
LINE
  5
8E7
  8
0
  6
CONTINUOUS
 10
528.58403034072842
 20
56.388018275248029
 30
0.0
 11
528.54138606565334
 21
56.285065888004233
 31
0.0
  0
LINE
  5
8E8
  8
0
  6
CONTINUOUS
 10
529.65716252569916
 20
56.388018275248029
 30
0.0
 11
529.6145182506242
 21
56.285065888004233
 31
0.0
  0
LINE
  5
8E9
  8
0
  6
CONTINUOUS
 10
528.54138606565334
 20
56.285065888004233
 30
0.0
 11
528.50731189194244
 21
56.026246842901728
 31
0.0
  0
LINE
  5
8EA
  8
0
  6
CONTINUOUS
 10
529.6145182506242
 20
56.285065888004233
 30
0.0
 11
529.50731189194232
 21
56.026246842901728
 31
0.0
  0
LINE
  5
8EB
  8
0
  6
CONTINUOUS
 10
528.50731189194244
 20
56.026246842901728
 30
0.0
 11
528.45620063137608
 21
55.638018275247731
 31
0.0
  0
LINE
  5
8EC
  8
0
  6
CONTINUOUS
 10
529.50731189194232
 20
56.026246842901728
 30
0.0
 11
529.50679080473094
 21
55.638018275247731
 31
0.0
  0
LINE
  5
8ED
  8
0
  6
CONTINUOUS
 10
528.45620063137608
 20
55.638018275247731
 30
0.0
 11
528.50746459565914
 21
17.946533795644651
 31
0.0
  0
LINE
  5
8EE
  8
0
  6
CONTINUOUS
 10
529.50679080473094
 20
55.638018275247731
 30
0.0
 11
529.45620063137596
 21
17.946533795644651
 31
0.0
  0
LINE
  5
8EF
  8
0
  6
CONTINUOUS
 10
528.50746459565914
 20
17.946533795644651
 30
0.0
 11
528.50787835206245
 21
17.642322186852422
 31
0.0
  0
LINE
  5
8F0
  8
0
  6
CONTINUOUS
 10
529.45620063137596
 20
17.946533795644651
 30
0.0
 11
529.48737276634836
 21
17.642322186852422
 31
0.0
  0
LINE
  5
8F1
  8
0
  6
CONTINUOUS
 10
528.50787835206245
 20
17.642322186852422
 30
0.0
 11
528.50815418966454
 21
17.439514447657679
 31
0.0
  0
LINE
  5
8F2
  8
0
  6
CONTINUOUS
 10
529.48737276634836
 20
17.642322186852422
 30
0.0
 11
529.55151941865859
 21
17.439514447657679
 31
0.0
  0
LINE
  5
8F3
  8
0
  6
CONTINUOUS
 10
528.50815418966454
 20
17.439514447657679
 30
0.0
 11
528.53622833961174
 21
17.350754478500338
 31
0.0
  0
LINE
  5
8F4
  8
0
  6
CONTINUOUS
 10
529.55151941865859
 20
17.439514447657679
 30
0.0
 11
529.57959356860601
 21
17.350754478500338
 31
0.0
  0
LINE
  5
8F5
  8
0
  6
CONTINUOUS
 10
528.53622833961174
 20
17.350754478500338
 30
0.0
 11
528.62061700660092
 21
17.083949054533399
 31
0.0
  0
LINE
  5
8F6
  8
0
  6
CONTINUOUS
 10
529.57959356860601
 20
17.350754478500338
 30
0.0
 11
529.72903007908656
 21
17.083949054533399
 31
0.0
  0
LINE
  5
8F7
  8
0
  6
CONTINUOUS
 10
528.62061700660092
 20
17.083949054533399
 30
0.0
 11
528.66185552676063
 21
16.953568267070839
 31
0.0
  0
LINE
  5
8F8
  8
0
  6
CONTINUOUS
 10
529.72903007908656
 20
17.083949054533399
 30
0.0
 11
529.86470712310472
 21
16.953568267070839
 31
0.0
  0
LINE
  5
8F9
  8
0
  6
CONTINUOUS
 10
528.66185552676063
 20
16.953568267070839
 30
0.0
 11
528.91091637756153
 21
16.508892560459191
 31
0.0
  0
LINE
  5
8FA
  8
0
  6
CONTINUOUS
 10
529.86470712310472
 20
16.953568267070839
 30
0.0
 11
530.32744620141455
 21
16.508892560459191
 31
0.0
  0
LINE
  5
8FB
  8
0
  6
CONTINUOUS
 10
528.91091637756153
 20
16.508892560459191
 30
0.0
 11
529.24498506412283
 21
16.123969316018002
 31
0.0
  0
LINE
  5
8FC
  8
0
  6
CONTINUOUS
 10
530.32744620141455
 20
16.508892560459191
 30
0.0
 11
530.72800558593781
 21
16.123969316018002
 31
0.0
  0
LINE
  5
8FD
  8
0
  6
CONTINUOUS
 10
529.24498506412283
 20
16.123969316018002
 30
0.0
 11
530.18439567681025
 21
15.22122931074143
 31
0.0
  0
LINE
  5
8FE
  8
0
  6
CONTINUOUS
 10
530.72800558593781
 20
16.123969316018002
 30
0.0
 11
531.66741619862535
 21
15.22122931074143
 31
0.0
  0
LINE
  5
8FF
  8
0
  6
CONTINUOUS
 10
530.18439567681025
 20
15.22122931074143
 30
0.0
 11
530.58495506133352
 21
14.83630606630024
 31
0.0
  0
LINE
  5
900
  8
0
  6
CONTINUOUS
 10
531.66741619862535
 20
15.22122931074143
 30
0.0
 11
532.00148488518698
 21
14.83630606630024
 31
0.0
  0
LINE
  5
901
  8
0
  6
CONTINUOUS
 10
530.58495506133352
 20
14.83630606630024
 30
0.0
 11
531.04769413964345
 21
14.391630359688589
 31
0.0
  0
LINE
  5
902
  8
0
  6
CONTINUOUS
 10
532.00148488518698
 20
14.83630606630024
 30
0.0
 11
532.25054573598766
 21
14.391630359688589
 31
0.0
  0
LINE
  5
903
  8
0
  6
CONTINUOUS
 10
531.04769413964345
 20
14.391630359688589
 30
0.0
 11
531.18337118366162
 21
14.26124957222603
 31
0.0
  0
LINE
  5
904
  8
0
  6
CONTINUOUS
 10
532.25054573598766
 20
14.391630359688589
 30
0.0
 11
532.29178425614725
 21
14.26124957222603
 31
0.0
  0
LINE
  5
905
  8
0
  6
CONTINUOUS
 10
531.18337118366162
 20
14.26124957222603
 30
0.0
 11
531.33280769414205
 21
13.99444414825909
 31
0.0
  0
LINE
  5
906
  8
0
  6
CONTINUOUS
 10
532.29178425614725
 20
14.26124957222603
 30
0.0
 11
532.37617292313644
 21
13.99444414825909
 31
0.0
  0
LINE
  5
907
  8
0
  6
CONTINUOUS
 10
531.33280769414205
 20
13.99444414825909
 30
0.0
 11
531.36088184408936
 21
13.905684179101611
 31
0.0
  0
LINE
  5
908
  8
0
  6
CONTINUOUS
 10
532.37617292313644
 20
13.99444414825909
 30
0.0
 11
532.40424707308364
 21
13.905684179101611
 31
0.0
  0
LINE
  5
909
  8
0
  6
CONTINUOUS
 10
531.36088184408936
 20
13.905684179101611
 30
0.0
 11
531.42502849639982
 21
13.70287643990687
 31
0.0
  0
LINE
  5
90A
  8
0
  6
CONTINUOUS
 10
532.40424707308364
 20
13.905684179101611
 30
0.0
 11
532.40459900533472
 21
13.70287643990687
 31
0.0
  0
LINE
  5
90B
  8
0
  6
CONTINUOUS
 10
531.42502849639982
 20
13.70287643990687
 30
0.0
 11
531.45620063137414
 21
13.39866483111464
 31
0.0
  0
LINE
  5
90C
  8
0
  6
CONTINUOUS
 10
532.40459900533472
 20
13.70287643990687
 30
0.0
 11
532.40512690371145
 21
13.39866483111464
 31
0.0
  0
LINE
  5
90D
  8
0
  6
CONTINUOUS
 10
501.43154399424202
 20
2.2216674692096769
 30
0.0
 11
501.05654170760948
 21
1.2946435833143819
 31
0.0
  0
LINE
  5
90E
  8
0
  6
CONTINUOUS
 10
503.72319211387742
 20
1.2946435833143819
 30
0.0
 11
501.43154399424202
 21
2.2216674692096769
 31
0.0
  0
LINE
  5
90F
  8
0
  6
CONTINUOUS
 10
501.05654170760948
 20
1.2946435833143819
 30
0.0
 11
506.24434558565957
 21
-0.8039413037310011
 31
0.0
  0
LINE
  5
910
  8
0
  6
CONTINUOUS
 10
503.72319211387742
 20
1.2946435833143819
 30
0.0
 11
508.91099599192768
 21
-0.8039413037310011
 31
0.0
  0
LINE
  5
911
  8
0
  6
CONTINUOUS
 10
506.24434558565957
 20
-0.8039413037310011
 30
0.0
 11
507.29976966570962
 21
-1.2308843948505479
 31
0.0
  0
LINE
  5
912
  8
0
  6
CONTINUOUS
 10
508.91099599192768
 20
-0.8039413037310011
 30
0.0
 11
509.67475915576921
 21
-1.2308843948505479
 31
0.0
  0
LINE
  5
913
  8
0
  6
CONTINUOUS
 10
507.29976966570962
 20
-1.2308843948505479
 30
0.0
 11
508.53599370529503
 21
-1.7309651896262961
 31
0.0
  0
LINE
  5
914
  8
0
  6
CONTINUOUS
 10
509.67475915576921
 20
-1.2308843948505479
 30
0.0
 11
510.2005095535277
 21
-1.7309651896262961
 31
0.0
  0
LINE
  5
915
  8
0
  6
CONTINUOUS
 10
508.53599370529503
 20
-1.7309651896262961
 30
0.0
 11
508.7201843220509
 21
-1.8339276195992791
 31
0.0
  0
LINE
  5
916
  8
0
  6
CONTINUOUS
 10
510.2005095535277
 20
-1.7309651896262961
 30
0.0
 11
510.30875713887389
 21
-1.8339276195992791
 31
0.0
  0
LINE
  5
917
  8
0
  6
CONTINUOUS
 10
508.7201843220509
 20
-1.8339276195992791
 30
0.0
 11
509.08153882232489
 21
-2.0359245404259951
 31
0.0
  0
LINE
  5
918
  8
0
  6
CONTINUOUS
 10
510.30875713887389
 20
-1.8339276195992791
 30
0.0
 11
510.43533211411398
 21
-2.0359245404259951
 31
0.0
  0
LINE
  5
919
  8
0
  6
CONTINUOUS
 10
509.08153882232489
 20
-2.0359245404259951
 30
0.0
 11
509.53439452454239
 21
-2.4666697009607428
 31
0.0
  0
LINE
  5
91A
  8
0
  6
CONTINUOUS
 10
510.43533211411398
 20
-2.0359245404259951
 30
0.0
 11
510.70524493162787
 21
-2.4666697009607428
 31
0.0
  0
LINE
  5
91B
  8
0
  6
CONTINUOUS
 10
509.53439452454239
 20
-2.4666697009607428
 30
0.0
 11
509.60251519983541
 21
-2.5753812897065198
 31
0.0
  0
LINE
  5
91C
  8
0
  6
CONTINUOUS
 10
510.70524493162787
 20
-2.4666697009607428
 30
0.0
 11
510.77336560692089
 21
-2.5753812897065198
 31
0.0
  0
LINE
  5
91D
  8
0
  6
CONTINUOUS
 10
509.60251519983541
 20
-2.5753812897065198
 30
0.0
 11
509.86625771600461
 21
-2.996279465323112
 31
0.0
  0
LINE
  5
91E
  8
0
  6
CONTINUOUS
 10
510.77336560692089
 20
-2.5753812897065198
 30
0.0
 11
510.90777714890629
 21
-2.996279465323112
 31
0.0
  0
LINE
  5
91F
  8
0
  6
CONTINUOUS
 10
509.86625771600461
 20
-2.996279465323112
 30
0.0
 11
509.99802749320332
 21
-3.408905181873521
 31
0.0
  0
LINE
  5
920
  8
0
  6
CONTINUOUS
 10
510.90777714890629
 20
-2.996279465323112
 30
0.0
 11
511.039546926105
 21
-3.408905181873521
 31
0.0
  0
LINE
  5
921
  8
0
  6
CONTINUOUS
 10
509.99802749320332
 20
-3.408905181873521
 30
0.0
 11
510.05638722970752
 21
-3.5916536740138261
 31
0.0
  0
LINE
  5
922
  8
0
  6
CONTINUOUS
 10
511.039546926105
 20
-3.408905181873521
 30
0.0
 11
511.05024154966912
 21
-3.5916536740138261
 31
0.0
  0
LINE
  5
923
  8
0
  6
CONTINUOUS
 10
510.05638722970752
 20
-3.5916536740138261
 30
0.0
 11
510.09290013287278
 21
-4.2155819457389114
 31
0.0
  0
LINE
  5
924
  8
0
  6
CONTINUOUS
 10
511.05024154966912
 20
-3.5916536740138261
 30
0.0
 11
511.08675445283433
 21
-4.2155819457389114
 31
0.0
  0
LINE
  5
925
  8
0
  6
CONTINUOUS
 10
510.09290013287278
 20
-4.2155819457389114
 30
0.0
 11
510.07989629353852
 21
-4.2824047622885004
 31
0.0
  0
LINE
  5
926
  8
0
  6
CONTINUOUS
 10
511.08675445283433
 20
-4.2155819457389114
 30
0.0
 11
511.0906649905362
 21
-4.2824047622885004
 31
0.0
  0
LINE
  5
927
  8
0
  6
CONTINUOUS
 10
510.07989629353852
 20
-4.2824047622885004
 30
0.0
 11
509.97351440012972
 21
-4.829069294567403
 31
0.0
  0
LINE
  5
928
  8
0
  6
CONTINUOUS
 10
511.0906649905362
 20
-4.2824047622885004
 30
0.0
 11
510.9842830971275
 21
-4.829069294567403
 31
0.0
  0
LINE
  5
929
  8
0
  6
CONTINUOUS
 10
509.97351440012972
 20
-4.829069294567403
 30
0.0
 11
509.82543849726699
 21
-5.1412870506484429
 31
0.0
  0
LINE
  5
92A
  8
0
  6
CONTINUOUS
 10
510.9842830971275
 20
-4.829069294567403
 30
0.0
 11
510.92352496469613
 21
-5.1412870506484429
 31
0.0
  0
LINE
  5
92B
  8
0
  6
CONTINUOUS
 10
509.82543849726699
 20
-5.1412870506484429
 30
0.0
 11
509.70569153816081
 21
-5.393773283363231
 31
0.0
  0
LINE
  5
92C
  8
0
  6
CONTINUOUS
 10
510.92352496469613
 20
-5.1412870506484429
 30
0.0
 11
510.80377800559
 21
-5.393773283363231
 31
0.0
  0
LINE
  5
92D
  8
0
  6
CONTINUOUS
 10
509.70569153816081
 20
-5.393773283363231
 30
0.0
 11
509.3061702478833
 21
-5.8744003934706583
 31
0.0
  0
LINE
  5
92E
  8
0
  6
CONTINUOUS
 10
510.80377800559
 20
-5.393773283363231
 30
0.0
 11
510.57583038927629
 21
-5.8744003934706583
 31
0.0
  0
LINE
  5
92F
  8
0
  6
CONTINUOUS
 10
509.3061702478833
 20
-5.8744003934706583
 30
0.0
 11
509.22678576672018
 21
-5.9318726349626303
 31
0.0
  0
LINE
  5
930
  8
0
  6
CONTINUOUS
 10
510.57583038927629
 20
-5.8744003934706583
 30
0.0
 11
510.54857295793948
 21
-5.9318726349626303
 31
0.0
  0
LINE
  5
931
  8
0
  6
CONTINUOUS
 10
509.22678576672018
 20
-5.9318726349626303
 30
0.0
 11
508.79992026988958
 21
-6.2409118395905017
 31
0.0
  0
LINE
  5
932
  8
0
  6
CONTINUOUS
 10
510.54857295793948
 20
-5.9318726349626303
 30
0.0
 11
510.29168411587722
 21
-6.2409118395905017
 31
0.0
  0
LINE
  5
933
  8
0
  6
CONTINUOUS
 10
508.79992026988958
 20
-6.2409118395905017
 30
0.0
 11
508.21858179691361
 21
-6.4704009682937951
 31
0.0
  0
LINE
  5
934
  8
0
  6
CONTINUOUS
 10
510.29168411587722
 20
-6.2409118395905017
 30
0.0
 11
510.10092127525479
 21
-6.4704009682937951
 31
0.0
  0
LINE
  5
935
  8
0
  6
CONTINUOUS
 10
508.21858179691361
 20
-6.4704009682937951
 30
0.0
 11
507.5984879887136
 21
-6.5485249043657197
 31
0.0
  0
LINE
  5
936
  8
0
  6
CONTINUOUS
 10
510.10092127525479
 20
-6.4704009682937951
 30
0.0
 11
510.03598075258219
 21
-6.5485249043657197
 31
0.0
  0
LINE
  5
937
  8
0
  6
CONTINUOUS
 10
503.9562006313738
 20
-6.5485249043657197
 30
0.0
 11
503.52912415521388
 21
-6.6047505891130314
 31
0.0
  0
LINE
  5
938
  8
0
  6
CONTINUOUS
 10
510.03598075258219
 20
-6.5485249043657197
 30
0.0
 11
509.98924315155102
 21
-6.6047505891130314
 31
0.0
  0
LINE
  5
939
  8
0
  6
CONTINUOUS
 10
503.52912415521388
 20
-6.6047505891130314
 30
0.0
 11
503.30915301861779
 21
-6.6337103386430547
 31
0.0
  0
LINE
  5
93A
  8
0
  6
CONTINUOUS
 10
509.98924315155102
 20
-6.6047505891130314
 30
0.0
 11
509.9492420200242
 21
-6.6337103386430547
 31
0.0
  0
LINE
  5
93B
  8
0
  6
CONTINUOUS
 10
503.30915301861779
 20
-6.6337103386430547
 30
0.0
 11
502.70620063137409
 21
-6.8834613949046348
 31
0.0
  0
LINE
  5
93C
  8
0
  6
CONTINUOUS
 10
509.9492420200242
 20
-6.6337103386430547
 30
0.0
 11
509.6042692556677
 21
-6.8834613949046348
 31
0.0
  0
LINE
  5
93D
  8
0
  6
CONTINUOUS
 10
502.70620063137409
 20
-6.8834613949046348
 30
0.0
 11
502.40071780273871
 21
-7.1178666136807029
 31
0.0
  0
LINE
  5
93E
  8
0
  6
CONTINUOUS
 10
509.6042692556677
 20
-6.8834613949046348
 30
0.0
 11
509.28049318236009
 21
-7.1178666136807029
 31
0.0
  0
LINE
  5
93F
  8
0
  6
CONTINUOUS
 10
502.40071780273871
 20
-7.1178666136807029
 30
0.0
 11
502.18843367840759
 21
-7.2807579513993437
 31
0.0
  0
LINE
  5
940
  8
0
  6
CONTINUOUS
 10
509.28049318236009
 20
-7.1178666136807029
 30
0.0
 11
508.86785925035019
 21
-7.2807579513993437
 31
0.0
  0
LINE
  5
941
  8
0
  6
CONTINUOUS
 10
502.18843367840759
 20
-7.2807579513993437
 30
0.0
 11
502.06689411528458
 21
-7.4391513938653651
 31
0.0
  0
LINE
  5
942
  8
0
  6
CONTINUOUS
 10
508.86785925035019
 20
-7.2807579513993437
 30
0.0
 11
508.46661932019367
 21
-7.4391513938653651
 31
0.0
  0
LINE
  5
943
  8
0
  6
CONTINUOUS
 10
502.06689411528458
 20
-7.4391513938653651
 30
0.0
 11
501.98296886890768
 21
-7.5485249043657632
 31
0.0
  0
LINE
  5
944
  8
0
  6
CONTINUOUS
 10
508.46661932019367
 20
-7.4391513938653651
 30
0.0
 11
507.5984879887061
 21
-7.5485249043657632
 31
0.0
  0
LINE
  5
945
  8
0
  6
CONTINUOUS
 10
501.98296886890768
 20
-7.5485249043657632
 30
0.0
 11
501.94374981928547
 21
-7.5996361649321349
 31
0.0
  0
LINE
  5
946
  8
0
  6
CONTINUOUS
 10
503.9562006313738
 20
-7.5485249043657632
 30
0.0
 11
503.56797206372028
 21
-7.5996361649321349
 31
0.0
  0
LINE
  5
947
  8
0
  6
CONTINUOUS
 10
501.94374981928547
 20
-7.5996361649321349
 30
0.0
 11
501.82876538383812
 21
-7.7494867986891123
 31
0.0
  0
LINE
  5
948
  8
0
  6
CONTINUOUS
 10
503.56797206372028
 20
-7.5996361649321349
 30
0.0
 11
503.2062006313742
 21
-7.7494867986891123
 31
0.0
  0
LINE
  5
949
  8
0
  6
CONTINUOUS
 10
501.82876538383812
 20
-7.7494867986891123
 30
0.0
 11
501.79113712191298
 21
-7.7985249043657063
 31
0.0
  0
LINE
  5
94A
  8
0
  6
CONTINUOUS
 10
503.2062006313742
 20
-7.7494867986891123
 30
0.0
 11
503.14229292782028
 21
-7.7985249043657063
 31
0.0
  0
LINE
  5
94B
  8
0
  6
CONTINUOUS
 10
501.79113712191298
 20
-7.7985249043657063
 30
0.0
 11
501.71270999716683
 21
-7.9878647325858054
 31
0.0
  0
LINE
  5
94C
  8
0
  6
CONTINUOUS
 10
503.14229292782028
 20
-7.7985249043657063
 30
0.0
 11
502.89554045959437
 21
-7.9878647325858054
 31
0.0
  0
LINE
  5
94D
  8
0
  6
CONTINUOUS
 10
501.71270999716683
 20
-7.9878647325858054
 30
0.0
 11
501.58403034072637
 21
-8.2985249043657277
 31
0.0
  0
LINE
  5
94E
  8
0
  6
CONTINUOUS
 10
502.89554045959437
 20
-7.9878647325858054
 30
0.0
 11
502.6571625256974
 21
-8.2985249043657277
 31
0.0
  0
LINE
  5
94F
  8
0
  6
CONTINUOUS
 10
501.58403034072637
 20
-8.2985249043657277
 30
0.0
 11
501.54138606565141
 21
-8.4014772916094032
 31
0.0
  0
LINE
  5
950
  8
0
  6
CONTINUOUS
 10
502.6571625256974
 20
-8.2985249043657277
 30
0.0
 11
502.61451825062238
 21
-8.4014772916094032
 31
0.0
  0
LINE
  5
951
  8
0
  6
CONTINUOUS
 10
501.54138606565141
 20
-8.4014772916094032
 30
0.0
 11
501.50731189194119
 21
-8.6602963367118946
 31
0.0
  0
LINE
  5
952
  8
0
  6
CONTINUOUS
 10
502.61451825062238
 20
-8.4014772916094032
 30
0.0
 11
502.50731189194062
 21
-8.6602963367118946
 31
0.0
  0
LINE
  5
953
  8
0
  6
CONTINUOUS
 10
501.50731189194119
 20
-8.6602963367118946
 30
0.0
 11
501.45620063137591
 21
-9.0485249043655571
 31
0.0
  0
LINE
  5
954
  8
0
  6
CONTINUOUS
 10
502.50731189194062
 20
-8.6602963367118946
 30
0.0
 11
502.50462070023508
 21
-9.0485249043655571
 31
0.0
  0
LINE
  5
955
  8
0
  6
CONTINUOUS
 10
531.45620063137414
 20
13.39866483111464
 30
0.0
 11
531.40575478172093
 21
-16.03355460000682
 31
0.0
  0
LINE
  5
956
  8
0
  6
CONTINUOUS
 10
532.40512690371145
 20
13.39866483111464
 30
0.0
 11
532.45620063137414
 21
-16.03355460000682
 31
0.0
  0
LINE
  5
957
  8
0
  6
CONTINUOUS
 10
501.45620063137591
 20
-9.0485249043655571
 30
0.0
 11
501.4714896540346
 21
-16.03355460000682
 31
0.0
  0
LINE
  5
958
  8
0
  6
CONTINUOUS
 10
502.50462070023508
 20
-9.0485249043655571
 30
0.0
 11
502.45620063137579
 21
-16.03355460000682
 31
0.0
  0
LINE
  5
959
  8
0
  6
CONTINUOUS
 10
501.4714896540346
 20
-16.03355460000682
 30
0.0
 11
501.47174814375461
 21
-16.151649681099482
 31
0.0
  0
LINE
  5
95A
  8
0
  6
CONTINUOUS
 10
502.45620063137579
 20
-16.03355460000682
 30
0.0
 11
502.4717481437545
 21
-16.151649681099482
 31
0.0
  0
LINE
  5
95B
  8
0
  6
CONTINUOUS
 10
531.40575478172093
 20
-16.03355460000682
 30
0.0
 11
531.40508937080949
 21
-16.421783167660621
 31
0.0
  0
LINE
  5
95C
  8
0
  6
CONTINUOUS
 10
532.45620063137414
 20
-16.03355460000682
 30
0.0
 11
532.40508937080892
 21
-16.421783167660621
 31
0.0
  0
LINE
  5
95D
  8
0
  6
CONTINUOUS
 10
501.47174814375461
 20
-16.151649681099482
 30
0.0
 11
501.50731189194232
 21
-16.421783167660621
 31
0.0
  0
LINE
  5
95E
  8
0
  6
CONTINUOUS
 10
502.4717481437545
 20
-16.151649681099482
 30
0.0
 11
502.50731189194232
 21
-16.421783167660621
 31
0.0
  0
LINE
  5
95F
  8
0
  6
CONTINUOUS
 10
531.40508937080949
 20
-16.421783167660621
 30
0.0
 11
531.29788301212773
 21
-16.680602212763109
 31
0.0
  0
LINE
  5
960
  8
0
  6
CONTINUOUS
 10
532.40508937080892
 20
-16.421783167660621
 30
0.0
 11
532.3710151970987
 21
-16.680602212763109
 31
0.0
  0
LINE
  5
961
  8
0
  6
CONTINUOUS
 10
501.50731189194232
 20
-16.421783167660621
 30
0.0
 11
501.54138606565328
 21
-16.680602212763109
 31
0.0
  0
LINE
  5
962
  8
0
  6
CONTINUOUS
 10
502.50731189194232
 20
-16.421783167660621
 30
0.0
 11
502.61451825062431
 21
-16.680602212763109
 31
0.0
  0
LINE
  5
963
  8
0
  6
CONTINUOUS
 10
531.29788301212773
 20
-16.680602212763109
 30
0.0
 11
531.25523873705265
 21
-16.783554600006791
 31
0.0
  0
LINE
  5
964
  8
0
  6
CONTINUOUS
 10
532.3710151970987
 20
-16.680602212763109
 30
0.0
 11
532.32837092202362
 21
-16.783554600006791
 31
0.0
  0
LINE
  5
965
  8
0
  6
CONTINUOUS
 10
501.54138606565328
 20
-16.680602212763109
 30
0.0
 11
501.58403034072842
 21
-16.783554600006791
 31
0.0
  0
LINE
  5
966
  8
0
  6
CONTINUOUS
 10
502.61451825062431
 20
-16.680602212763109
 30
0.0
 11
502.65716252569939
 21
-16.783554600006791
 31
0.0
  0
LINE
  5
967
  8
0
  6
CONTINUOUS
 10
531.25523873705265
 20
-16.783554600006791
 30
0.0
 11
531.01686080315585
 21
-17.09421477178671
 31
0.0
  0
LINE
  5
968
  8
0
  6
CONTINUOUS
 10
532.32837092202362
 20
-16.783554600006791
 30
0.0
 11
532.19969126558328
 21
-17.09421477178671
 31
0.0
  0
LINE
  5
969
  8
0
  6
CONTINUOUS
 10
501.58403034072842
 20
-16.783554600006791
 30
0.0
 11
501.71270999716882
 21
-17.09421477178671
 31
0.0
  0
LINE
  5
96A
  8
0
  6
CONTINUOUS
 10
502.65716252569939
 20
-16.783554600006791
 30
0.0
 11
502.89554045959642
 21
-17.09421477178671
 31
0.0
  0
LINE
  5
96B
  8
0
  6
CONTINUOUS
 10
531.01686080315585
 20
-17.09421477178671
 30
0.0
 11
530.77010833492977
 21
-17.283554600006809
 31
0.0
  0
LINE
  5
96C
  8
0
  6
CONTINUOUS
 10
532.19969126558328
 20
-17.09421477178671
 30
0.0
 11
532.12126414083696
 21
-17.283554600006809
 31
0.0
  0
LINE
  5
96D
  8
0
  6
CONTINUOUS
 10
501.71270999716882
 20
-17.09421477178671
 30
0.0
 11
501.79113712191491
 21
-17.283554600006809
 31
0.0
  0
LINE
  5
96E
  8
0
  6
CONTINUOUS
 10
502.89554045959642
 20
-17.09421477178671
 30
0.0
 11
503.14229292782221
 21
-17.283554600006809
 31
0.0
  0
LINE
  5
96F
  8
0
  6
CONTINUOUS
 10
530.77010833492977
 20
-17.283554600006809
 30
0.0
 11
530.70620063137585
 21
-17.3325927056834
 31
0.0
  0
LINE
  5
970
  8
0
  6
CONTINUOUS
 10
532.12126414083696
 20
-17.283554600006809
 30
0.0
 11
532.08363587891199
 21
-17.3325927056834
 31
0.0
  0
LINE
  5
971
  8
0
  6
CONTINUOUS
 10
501.79113712191491
 20
-17.283554600006809
 30
0.0
 11
501.82876538383999
 21
-17.3325927056834
 31
0.0
  0
LINE
  5
972
  8
0
  6
CONTINUOUS
 10
503.14229292782221
 20
-17.283554600006809
 30
0.0
 11
503.20620063137602
 21
-17.3325927056834
 31
0.0
  0
LINE
  5
973
  8
0
  6
CONTINUOUS
 10
530.70620063137585
 20
-17.3325927056834
 30
0.0
 11
530.34442919902949
 21
-17.482443339440511
 31
0.0
  0
LINE
  5
974
  8
0
  6
CONTINUOUS
 10
532.08363587891199
 20
-17.3325927056834
 30
0.0
 11
531.96865144346452
 21
-17.482443339440511
 31
0.0
  0
LINE
  5
975
  8
0
  6
CONTINUOUS
 10
501.82876538383999
 20
-17.3325927056834
 30
0.0
 11
501.94374981928758
 21
-17.482443339440511
 31
0.0
  0
LINE
  5
976
  8
0
  6
CONTINUOUS
 10
503.20620063137602
 20
-17.3325927056834
 30
0.0
 11
503.56797206372221
 21
-17.482443339440511
 31
0.0
  0
LINE
  5
977
  8
0
  6
CONTINUOUS
 10
531.96865144346452
 20
-17.482443339440511
 30
0.0
 11
531.92943239384226
 21
-17.533554600006749
 31
0.0
  0
LINE
  5
978
  8
0
  6
CONTINUOUS
 10
501.94374981928758
 20
-17.482443339440511
 30
0.0
 11
501.98296886890961
 21
-17.533554600006749
 31
0.0
  0
LINE
  5
979
  8
0
  6
CONTINUOUS
 10
501.98296886890961
 20
-17.533554600006749
 30
0.0
 11
502.18843367840958
 21
-17.801321552973171
 31
0.0
  0
LINE
  5
97A
  8
0
  6
CONTINUOUS
 10
531.92943239384226
 20
-17.533554600006749
 30
0.0
 11
531.72396758434229
 21
-17.801321552973171
 31
0.0
  0
LINE
  5
97B
  8
0
  6
CONTINUOUS
 10
502.18843367840958
 20
-17.801321552973171
 30
0.0
 11
502.70620063137602
 21
-18.19861810946788
 31
0.0
  0
LINE
  5
97C
  8
0
  6
CONTINUOUS
 10
531.72396758434229
 20
-17.801321552973171
 30
0.0
 11
531.20620063137585
 21
-18.19861810946788
 31
0.0
  0
LINE
  5
97D
  8
0
  6
CONTINUOUS
 10
502.70620063137602
 20
-18.19861810946788
 30
0.0
 11
503.30915301861972
 21
-18.44836916572946
 31
0.0
  0
LINE
  5
97E
  8
0
  6
CONTINUOUS
 10
531.20620063137585
 20
-18.19861810946788
 30
0.0
 11
530.60324824413215
 21
-18.44836916572946
 31
0.0
  0
LINE
  5
97F
  8
0
  6
CONTINUOUS
 10
503.30915301861972
 20
-18.44836916572946
 30
0.0
 11
503.95620063137608
 21
-18.533554600006791
 31
0.0
  0
LINE
  5
980
  8
0
  6
CONTINUOUS
 10
530.60324824413215
 20
-18.44836916572946
 30
0.0
 11
529.95620063137596
 21
-18.533554600006791
 31
0.0
  0
ENDBLK
  5
982
  8
0
  0
BLOCK
  8
0
  2
*X33
 70
     1
 10
0.0
 20
0.0
 30
0.0
  3
*X33
  1

  0
LINE
  5
984
  8
0
 62
     0
 10
30.308241135171439
 20
-210.00002815239611
 30
0.0
 11
50.308241135171293
 21
-210.00002815239611
 31
0.0
  0
LINE
  5
985
  8
0
 62
     0
 10
30.308241135171372
 20
-195.00002815239611
 30
0.0
 11
50.30824113517123
 21
-195.00002815239611
 31
0.0
  0
LINE
  5
986
  8
0
 62
     0
 10
30.308241135171311
 20
-180.00002815239611
 30
0.0
 11
50.308241135171187
 21
-180.00002815239611
 31
0.0
  0
LINE
  5
987
  8
0
 62
     0
 10
30.30824113517124
 20
-165.00002815239611
 30
0.0
 11
50.30824113517113
 21
-165.00002815239611
 31
0.0
  0
LINE
  5
988
  8
0
 62
     0
 10
30.30824113517118
 20
-150.00002815239611
 30
0.0
 11
50.30824113517108
 21
-150.00002815239611
 31
0.0
  0
LINE
  5
989
  8
0
 62
     0
 10
30.308241135171119
 20
-135.00002815239611
 30
0.0
 11
50.308241135171023
 21
-135.00002815239611
 31
0.0
  0
LINE
  5
98A
  8
0
 62
     0
 10
30.308241135171059
 20
-120.000028152396
 30
0.0
 11
50.308241135170967
 21
-120.000028152396
 31
0.0
  0
LINE
  5
98B
  8
0
 62
     0
 10
30.308241135170991
 20
-105.0000281523961
 30
0.0
 11
50.30824113517091
 21
-105.0000281523961
 31
0.0
  0
LINE
  5
98C
  8
0
 62
     0
 10
30.308241135170931
 20
-90.000028152396084
 30
0.0
 11
50.308241135170867
 21
-90.000028152396084
 31
0.0
  0
LINE
  5
98D
  8
0
 62
     0
 10
30.308241135170871
 20
-75.000028152396084
 30
0.0
 11
50.30824113517081
 21
-75.000028152396084
 31
0.0
  0
LINE
  5
98E
  8
0
 62
     0
 10
30.30824113517081
 20
-60.000028152396077
 30
0.0
 11
50.308241135170761
 21
-60.000028152396077
 31
0.0
  0
LINE
  5
98F
  8
0
 62
     0
 10
30.308241135170739
 20
-45.000028152396077
 30
0.0
 11
50.308241135170697
 21
-45.000028152396077
 31
0.0
  0
LINE
  5
990
  8
0
 62
     0
 10
30.308241135170679
 20
-30.00002815239608
 30
0.0
 11
50.308241135170647
 21
-30.00002815239608
 31
0.0
  0
LINE
  5
991
  8
0
 62
     0
 10
30.308241135170611
 20
-15.00002815239608
 30
0.0
 11
50.30824113517059
 21
-15.00002815239608
 31
0.0
  0
ENDBLK
  5
993
  8
0
  0
ENDSEC
  0
SECTION
  2
ENTITIES
  0
CIRCLE
  5
267
  8
0
 10
505.94502224013422
 20
156.51737828243711
 30
0.0
 40
2.4999999999999609
1001
REVIT
1002
{
1070
     1
1000
538642
1002
}
1002
{
1070
     5
1000
233011
1002
}
1002
{
1070
     2
1000
-2005028
1002
}
  0
INSERT
  5
268
  8
0
  6
CONTINUOUS
  2
*U15
 10
0.0
 20
0.0
 30
0.0
1001
REVIT
1002
{
1070
     1
1000
538642
1002
}
1002
{
1070
     5
1000
233011
1002
}
1002
{
1070
     2
1000
-2005028
1002
}
1001
ACAD
1002
{
1000
R14_HATCH_DATA
1000
268
1011
1.0
1021
0.0
1031
0.0
1021
0.0
1031
0.0
1011
0.0
1021
0.0
1031
0.0
1021
1.0
1031
0.0
1011
0.0
1021
0.0
1031
0.0
1021
0.0
1031
1.0
1040
0.0
1010
0.0
1020
0.0
1030
1.0
1000
SOLID
1070
     1
1070
     0
1071
        1
1071
        0
1071
        1
1070
     2
1040
505.94502224013422
1040
156.51737828243711
1040
2.4999999999999609
1040
0.0
1040
6.2831853071795862
1070
     1
1071
        0
1070
     0
1070
     1
1071
        1
1040
0.0
1040
0.0
1040
0.0
1002
}
  0
LINE
  5
269
  8
0
 10
523.45748276738016
 20
240.5128373303065
 30
0.0
 11
602.9453562433099
 21
240.5128373303065
 31
0.0
1001
REVIT
1002
{
1070
     1
1000
538642
1002
}
1002
{
1070
     5
1000
233011
1002
}
1002
{
1070
     2
1000
-2005028
1002
}
  0
LINE
  5
26A
  8
0
 10
505.94502224013422
 20
156.51737828243711
 30
0.0
 11
523.45748276738016
 21
240.5128373303065
 31
0.0
1001
REVIT
1002
{
1070
     1
1000
538642
1002
}
1002
{
1070
     5
1000
233011
1002
}
1002
{
1070
     2
1000
-2005028
1002
}
  0
INSERT
  5
26C
  8
0
  2
*U16
 10
0.0
 20
0.0
 30
0.0
  0
CIRCLE
  5
26D
  8
0
 10
516.99566550613974
 20
-20.732711878459909
 30
0.0
 40
2.4999999999999969
1001
REVIT
1002
{
1070
     1
1000
538643
1002
}
1002
{
1070
     5
1000
233013
1002
}
1002
{
1070
     2
1000
-2005028
1002
}
  0
INSERT
  5
26E
  8
0
  6
CONTINUOUS
  2
*U17
 10
0.0
 20
0.0
 30
0.0
1001
REVIT
1002
{
1070
     1
1000
538643
1002
}
1002
{
1070
     5
1000
233013
1002
}
1002
{
1070
     2
1000
-2005028
1002
}
1001
ACAD
1002
{
1000
R14_HATCH_DATA
1000
26E
1011
1.0
1021
0.0
1031
0.0
1021
0.0
1031
0.0
1011
0.0
1021
0.0
1031
0.0
1021
1.0
1031
0.0
1011
0.0
1021
0.0
1031
0.0
1021
0.0
1031
1.0
1040
0.0
1010
0.0
1020
0.0
1030
1.0
1000
SOLID
1070
     1
1070
     0
1071
        1
1071
        0
1071
        1
1070
     2
1040
516.99566550613974
1040
-20.732711878459909
1040
2.4999999999999969
1040
0.0
1040
6.2831853071795862
1070
     1
1071
        0
1070
     0
1070
     1
1071
        1
1040
0.0
1040
0.0
1040
0.0
1002
}
  0
LINE
  5
26F
  8
0
 10
516.99566550613974
 20
-45.911138773767277
 30
0.0
 11
602.69535624330979
 21
-45.911138773767277
 31
0.0
1001
REVIT
1002
{
1070
     1
1000
538643
1002
}
1002
{
1070
     5
1000
233013
1002
}
1002
{
1070
     2
1000
-2005028
1002
}
  0
LINE
  5
270
  8
0
 10
516.99566550613974
 20
-20.732711878459909
 30
0.0
 11
516.99566550613974
 21
-45.911138773767277
 31
0.0
1001
REVIT
1002
{
1070
     1
1000
538643
1002
}
1002
{
1070
     5
1000
233013
1002
}
1002
{
1070
     2
1000
-2005028
1002
}
  0
INSERT
  5
271
  8
0
  2
*U18
 10
0.0
 20
0.0
 30
0.0
  0
CIRCLE
  5
272
  8
0
 10
368.15287401434671
 20
-6.843821598000237
 30
0.0
 40
2.4999999999999978
1001
REVIT
1002
{
1070
     1
1000
538644
1002
}
1002
{
1070
     5
1000
233013
1002
}
1002
{
1070
     2
1000
-2005028
1002
}
  0
INSERT
  5
273
  8
0
  6
CONTINUOUS
  2
*U19
 10
0.0
 20
0.0
 30
0.0
1001
REVIT
1002
{
1070
     1
1000
538644
1002
}
1002
{
1070
     5
1000
233013
1002
}
1002
{
1070
     2
1000
-2005028
1002
}
1001
ACAD
1002
{
1000
R14_HATCH_DATA
1000
273
1011
1.0
1021
0.0
1031
0.0
1021
0.0
1031
0.0
1011
0.0
1021
0.0
1031
0.0
1021
1.0
1031
0.0
1011
0.0
1021
0.0
1031
0.0
1021
0.0
1031
1.0
1040
0.0
1010
0.0
1020
0.0
1030
1.0
1000
SOLID
1070
     1
1070
     0
1071
        1
1071
        0
1071
        1
1070
     2
1040
368.15287401434671
1040
-6.843821598000237
1040
2.4999999999999978
1040
0.0
1040
6.2831853071795862
1070
     1
1071
        0
1070
     0
1070
     1
1071
        1
1040
0.0
1040
0.0
1040
0.0
1002
}
  0
LINE
  5
274
  8
0
 10
368.15287401434671
 20
-98.336328860568685
 30
0.0
 11
602.94535624330967
 21
-98.336328860568699
 31
0.0
1001
REVIT
1002
{
1070
     1
1000
538644
1002
}
1002
{
1070
     5
1000
233013
1002
}
1002
{
1070
     2
1000
-2005028
1002
}
  0
LINE
  5
275
  8
0
 10
368.15287401434671
 20
-6.843821598000237
 30
0.0
 11
368.15287401434671
 21
-98.336328860568685
 31
0.0
1001
REVIT
1002
{
1070
     1
1000
538644
1002
}
1002
{
1070
     5
1000
233013
1002
}
1002
{
1070
     2
1000
-2005028
1002
}
  0
INSERT
  5
276
  8
0
  2
*U20
 10
0.0
 20
0.0
 30
0.0
  0
CIRCLE
  5
284
  8
0
 10
-90.334271585586436
 20
100.39590230012401
 30
0.0
 40
2.5
1001
REVIT
1002
{
1070
     1
1000
538647
1002
}
1002
{
1070
     5
1000
233013
1002
}
1002
{
1070
     2
1000
-2005028
1002
}
  0
INSERT
  5
285
  8
0
  6
CONTINUOUS
  2
*U21
 10
0.0
 20
0.0
 30
0.0
1001
REVIT
1002
{
1070
     1
1000
538647
1002
}
1002
{
1070
     5
1000
233013
1002
}
1002
{
1070
     2
1000
-2005028
1002
}
1001
ACAD
1002
{
1000
R14_HATCH_DATA
1000
285
1011
1.0
1021
0.0
1031
0.0
1021
0.0
1031
0.0
1011
0.0
1021
0.0
1031
0.0
1021
1.0
1031
0.0
1011
0.0
1021
0.0
1031
0.0
1021
0.0
1031
1.0
1040
0.0
1010
0.0
1020
0.0
1030
1.0
1000
SOLID
1070
     1
1070
     0
1071
        1
1071
        0
1071
        1
1070
     2
1040
-90.334271585586436
1040
100.39590230012401
1040
2.5
1040
0.0
1040
6.2831853071795862
1070
     1
1071
        0
1070
     0
1070
     1
1071
        1
1040
0.0
1040
0.0
1040
0.0
1002
}
  0
LINE
  5
286
  8
0
 10
-90.334271585586436
 20
100.39590230012401
 30
0.0
 11
-287.17223555451028
 21
100.39590230012401
 31
0.0
1001
REVIT
1002
{
1070
     1
1000
538647
1002
}
1002
{
1070
     5
1000
233013
1002
}
1002
{
1070
     2
1000
-2005028
1002
}
  0
INSERT
  5
287
  8
0
  2
*U22
 10
0.0
 20
0.0
 30
0.0
  0
CIRCLE
  5
288
  8
0
 10
-85.013437837416305
 20
40.802564320617762
 30
0.0
 40
2.5000000000000009
1001
REVIT
1002
{
1070
     1
1000
538648
1002
}
1002
{
1070
     5
1000
233013
1002
}
1002
{
1070
     2
1000
-2005028
1002
}
  0
INSERT
  5
289
  8
0
  6
CONTINUOUS
  2
*U23
 10
0.0
 20
0.0
 30
0.0
1001
REVIT
1002
{
1070
     1
1000
538648
1002
}
1002
{
1070
     5
1000
233013
1002
}
1002
{
1070
     2
1000
-2005028
1002
}
1001
ACAD
1002
{
1000
R14_HATCH_DATA
1000
289
1011
1.0
1021
0.0
1031
0.0
1021
0.0
1031
0.0
1011
0.0
1021
0.0
1031
0.0
1021
1.0
1031
0.0
1011
0.0
1021
0.0
1031
0.0
1021
0.0
1031
1.0
1040
0.0
1010
0.0
1020
0.0
1030
1.0
1000
SOLID
1070
     1
1070
     0
1071
        1
1071
        0
1071
        1
1070
     2
1040
-85.013437837416305
1040
40.802564320617762
1040
2.5000000000000009
1040
0.0
1040
6.2831853071795862
1070
     1
1071
        0
1070
     0
1070
     1
1071
        1
1040
0.0
1040
0.0
1040
0.0
1002
}
  0
LINE
  5
28A
  8
0
 10
-182.47889291177319
 20
-5.3780918647010374
 30
0.0
 11
-265.54723555451039
 21
-5.3780918647010196
 31
0.0
1001
REVIT
1002
{
1070
     1
1000
538648
1002
}
1002
{
1070
     5
1000
233013
1002
}
1002
{
1070
     2
1000
-2005028
1002
}
  0
LINE
  5
28B
  8
0
 10
-85.013437837416305
 20
40.802564320617762
 30
0.0
 11
-182.47889291177319
 21
-5.3780918647010321
 31
0.0
1001
REVIT
1002
{
1070
     1
1000
538648
1002
}
1002
{
1070
     5
1000
233013
1002
}
1002
{
1070
     2
1000
-2005028
1002
}
  0
INSERT
  5
28C
  8
0
  2
*U24
 10
0.0
 20
0.0
 30
0.0
  0
CIRCLE
  5
28D
  8
0
 10
-112.690321755941
 20
77.644292542742818
 30
0.0
 40
2.5000000000000031
1001
REVIT
1002
{
1070
     1
1000
538649
1002
}
1002
{
1070
     5
1000
233013
1002
}
1002
{
1070
     2
1000
-2005028
1002
}
  0
INSERT
  5
28E
  8
0
  6
CONTINUOUS
  2
*U25
 10
0.0
 20
0.0
 30
0.0
1001
REVIT
1002
{
1070
     1
1000
538649
1002
}
1002
{
1070
     5
1000
233013
1002
}
1002
{
1070
     2
1000
-2005028
1002
}
1001
ACAD
1002
{
1000
R14_HATCH_DATA
1000
28E
1011
1.0
1021
0.0
1031
0.0
1021
0.0
1031
0.0
1011
0.0
1021
0.0
1031
0.0
1021
1.0
1031
0.0
1011
0.0
1021
0.0
1031
0.0
1021
0.0
1031
1.0
1040
0.0
1010
0.0
1020
0.0
1030
1.0
1000
SOLID
1070
     1
1070
     0
1071
        1
1071
        0
1071
        1
1070
     2
1040
-112.690321755941
1040
77.644292542742818
1040
2.5000000000000031
1040
0.0
1040
6.2831853071795862
1070
     1
1071
        0
1070
     0
1070
     1
1071
        1
1040
0.0
1040
0.0
1040
0.0
1002
}
  0
LINE
  5
28F
  8
0
 10
-174.979278803748
 20
47.547751466626792
 30
0.0
 11
-268.79723555451028
 21
47.547751466626792
 31
0.0
1001
REVIT
1002
{
1070
     1
1000
538649
1002
}
1002
{
1070
     5
1000
233013
1002
}
1002
{
1070
     2
1000
-2005028
1002
}
  0
LINE
  5
290
  8
0
 10
-112.690321755941
 20
77.644292542742818
 30
0.0
 11
-174.979278803748
 21
47.547751466626792
 31
0.0
1001
REVIT
1002
{
1070
     1
1000
538649
1002
}
1002
{
1070
     5
1000
233013
1002
}
1002
{
1070
     2
1000
-2005028
1002
}
  0
INSERT
  5
291
  8
0
  2
*U26
 10
0.0
 20
0.0
 30
0.0
  0
CIRCLE
  5
292
  8
0
 10
-88.739553407247627
 20
145.49256893730899
 30
0.0
 40
2.5
1001
REVIT
1002
{
1070
     1
1000
538652
1002
}
1002
{
1070
     5
1000
515860
1002
}
1002
{
1070
     2
1000
-2005028
1002
}
  0
INSERT
  5
293
  8
0
  6
CONTINUOUS
  2
*U27
 10
0.0
 20
0.0
 30
0.0
1001
REVIT
1002
{
1070
     1
1000
538652
1002
}
1002
{
1070
     5
1000
515860
1002
}
1002
{
1070
     2
1000
-2005028
1002
}
1001
ACAD
1002
{
1000
R14_HATCH_DATA
1000
293
1011
1.0
1021
0.0
1031
0.0
1021
0.0
1031
0.0
1011
0.0
1021
0.0
1031
0.0
1021
1.0
1031
0.0
1011
0.0
1021
0.0
1031
0.0
1021
0.0
1031
1.0
1040
0.0
1010
0.0
1020
0.0
1030
1.0
1000
SOLID
1070
     1
1070
     0
1071
        1
1071
        0
1071
        1
1070
     2
1040
-88.739553407247627
1040
145.49256893730899
1040
2.5
1040
0.0
1040
6.2831853071795862
1070
     1
1071
        0
1070
     0
1070
     1
1071
        1
1040
0.0
1040
0.0
1040
0.0
1002
}
  0
LINE
  5
294
  8
0
 10
-88.739553407247627
 20
197.00550327880819
 30
0.0
 11
-187.04723555451031
 21
197.00550327880819
 31
0.0
1001
REVIT
1002
{
1070
     1
1000
538652
1002
}
1002
{
1070
     5
1000
515860
1002
}
1002
{
1070
     2
1000
-2005028
1002
}
  0
LINE
  5
295
  8
0
 10
-88.739553407247627
 20
145.49256893730899
 30
0.0
 11
-88.739553407247627
 21
197.00550327880819
 31
0.0
1001
REVIT
1002
{
1070
     1
1000
538652
1002
}
1002
{
1070
     5
1000
515860
1002
}
1002
{
1070
     2
1000
-2005028
1002
}
  0
INSERT
  5
296
  8
0
  2
*U28
 10
0.0
 20
0.0
 30
0.0
  0
CIRCLE
  5
297
  8
0
 10
494.38802270240018
 20
166.39566919955229
 30
0.0
 40
2.5
1001
REVIT
1002
{
1070
     1
1000
538653
1002
}
1002
{
1070
     5
1000
233011
1002
}
1002
{
1070
     2
1000
-2005028
1002
}
  0
INSERT
  5
298
  8
0
  6
CONTINUOUS
  2
*U29
 10
0.0
 20
0.0
 30
0.0
1001
REVIT
1002
{
1070
     1
1000
538653
1002
}
1002
{
1070
     5
1000
233011
1002
}
1002
{
1070
     2
1000
-2005028
1002
}
1001
ACAD
1002
{
1000
R14_HATCH_DATA
1000
298
1011
1.0
1021
0.0
1031
0.0
1021
0.0
1031
0.0
1011
0.0
1021
0.0
1031
0.0
1021
1.0
1031
0.0
1011
0.0
1021
0.0
1031
0.0
1021
0.0
1031
1.0
1040
0.0
1010
0.0
1020
0.0
1030
1.0
1000
SOLID
1070
     1
1070
     0
1071
        1
1071
        0
1071
        1
1070
     2
1040
494.38802270240018
1040
166.39566919955229
1040
2.5
1040
0.0
1040
6.2831853071795862
1070
     1
1071
        0
1070
     0
1070
     1
1071
        1
1040
0.0
1040
0.0
1040
0.0
1002
}
  0
LINE
  5
299
  8
0
 10
494.38802270240018
 20
302.48795003681028
 30
0.0
 11
602.9453562433099
 21
302.48795003681028
 31
0.0
1001
REVIT
1002
{
1070
     1
1000
538653
1002
}
1002
{
1070
     5
1000
233011
1002
}
1002
{
1070
     2
1000
-2005028
1002
}
  0
LINE
  5
29A
  8
0
 10
494.38802270240018
 20
166.39566919955229
 30
0.0
 11
494.38802270240018
 21
302.48795003681028
 31
0.0
1001
REVIT
1002
{
1070
     1
1000
538653
1002
}
1002
{
1070
     5
1000
233011
1002
}
1002
{
1070
     2
1000
-2005028
1002
}
  0
INSERT
  5
29B
  8
0
  2
*U30
 10
0.0
 20
0.0
 30
0.0
  0
LINE
  5
2FD
  8
0
 10
-160.01966414458991
 20
-28.408250613458112
 30
0.0
 11
-160.01966414458971
 21
68.037756244941775
 31
0.0
  0
LINE
  5
2FE
  8
0
 10
-160.01966414458951
 20
171.59174938654189
 30
0.0
 11
-160.01966414458971
 21
75.145742528141994
 31
0.0
  0
LINE
  5
2FF
  8
0
 10
-160.01966414458991
 20
-28.408250613458112
 30
0.0
 11
-160.01966414458971
 21
68.037756244941775
 31
0.0
  0
LINE
  5
300
  8
0
 10
-160.01966414458971
 20
68.037756244941775
 30
0.0
 11
-149.71204498370881
 21
69.855267609872556
 31
0.0
  0
LINE
  5
301
  8
0
 10
-149.71204498370881
 20
69.855267609872556
 30
0.0
 11
-170.32728330547059
 21
73.328231163211214
 31
0.0
  0
LINE
  5
302
  8
0
 10
-170.32728330547059
 20
73.328231163211214
 30
0.0
 11
-160.01966414458971
 21
75.145742528141994
 31
0.0
  0
LINE
  5
303
  8
0
 10
-160.01966414458971
 20
75.145742528141994
 30
0.0
 11
-160.01966414458951
 21
171.59174938654189
 31
0.0
  0
LINE
  5
304
  8
0
 10
70.000000000000171
 20
-218.41902815239609
 30
0.0
 11
-26.446006858399731
 21
-218.41902815239609
 31
0.0
  0
LINE
  5
305
  8
0
 10
-129.9999999999998
 20
-218.41902815239609
 30
0.0
 11
-33.553993141599932
 21
-218.41902815239609
 31
0.0
  0
LINE
  5
306
  8
0
 10
70.000000000000171
 20
-218.41902815239609
 30
0.0
 11
-26.446006858399731
 21
-218.41902815239609
 31
0.0
  0
LINE
  5
307
  8
0
 10
-26.446006858399731
 20
-218.41902815239609
 30
0.0
 11
-28.263518223330522
 21
-208.1114089915153
 31
0.0
  0
LINE
  5
308
  8
0
 10
-28.263518223330522
 20
-208.11140899151519
 30
0.0
 11
-31.736481776669141
 21
-228.726647313277
 31
0.0
  0
LINE
  5
309
  8
0
 10
-31.736481776669141
 20
-228.726647313277
 30
0.0
 11
-33.553993141599932
 21
-218.41902815239609
 31
0.0
  0
LINE
  5
30A
  8
0
 10
-33.553993141599932
 20
-218.41902815239609
 30
0.0
 11
-129.9999999999998
 21
-218.41902815239609
 31
0.0
  0
INSERT
  5
30B
  8
0
  6
CONTINUOUS
  2
*U31
 10
0.0
 20
0.0
 30
0.0
1001
ACAD
1002
{
1000
R14_HATCH_DATA
1000
30B
1011
1.0
1021
0.0
1031
0.0
1021
0.0
1031
0.0
1011
0.0
1021
0.0
1031
0.0
1021
1.0
1031
0.0
1011
0.0
1021
0.0
1031
0.0
1021
0.0
1031
1.0
1040
0.0
1010
0.0
1020
0.0
1030
1.0
1000
SOLID
1070
     1
1070
     0
1071
        1
1071
        0
1071
      110
1070
     1
1040
211.61461348041459
1040
125.4461615124922
1040
227.6229204553936
1040
126.1678873005181
1070
     1
1040
227.6229204553936
1040
126.1678873005181
1040
243.4343820835212
1040
128.3330646645957
1070
     1
1040
243.4343820835212
1040
128.3330646645957
1040
259.11461348041462
1040
131.94169360472529
1070
     1
1040
259.11461348041462
1040
131.94169360472529
1040
266.11461348041291
1040
141.44169360472401
1070
     1
1040
266.11461348041291
1040
141.44169360472401
1040
280.78757962943752
1040
146.570563811467
1070
     1
1040
280.78757962943752
1040
146.570563811467
1040
295.62406270395002
1040
150.4172164665242
1070
     1
1040
295.62406270395002
1040
150.4172164665242
1040
310.62406270395007
1040
152.9816515698958
1070
     1
1040
310.62406270395007
1040
152.9816515698958
1040
325.8965909130963
1040
154.26386912158159
1070
     1
1040
325.8965909130963
1040
154.26386912158159
1040
341.33263604773038
1040
154.26386912158171
1070
     1
1040
341.33263604773038
1040
154.26386912158171
1040
356.60516425687678
1040
152.98165156989609
1070
     1
1040
356.60516425687672
1040
152.98165156989609
1040
371.60516425687678
1040
150.41721646652471
1070
     1
1040
371.60516425687678
1040
150.41721646652471
1040
386.44164733138928
1040
146.57056381146771
1070
     1
1040
386.44164733138928
1040
146.57056381146771
1040
401.11461348041502
1040
141.44169360472461
1070
     1
1040
401.11461348041507
1040
141.44169360472461
1040
408.1146134804149
1040
131.941693604725
1070
     1
1040
408.1146134804149
1040
131.941693604725
1040
423.37671195357598
1040
128.40963053158359
1070
     1
1040
423.37671195357598
1040
128.40963053158359
1040
438.76977427907332
1040
126.2459443606066
1070
     1
1040
438.76977427907332
1040
126.2459443606066
1040
454.35440246126342
1040
125.4502031253563
1070
     1
1040
454.35440246126348
1040
125.4502031253563
1040
469.94879048707691
1040
126.0237027251456
1070
     1
1040
469.94879048707691
1040
126.0237027251456
1040
485.37113234344417
1040
127.9677390592875
1070
     1
1040
485.37113234344417
1040
127.9677390592875
1040
500.68203003472178
1040
131.28188016134419
1070
     1
1040
500.68203003472189
1040
131.28188016134419
1040
501.57896869219547
1040
131.62684299786471
1070
     1
1040
501.57896869219547
1040
131.6268429978648
1040
502.37962324643121
1040
132.1583038135721
1070
     1
1040
502.37962324643121
1040
132.1583038135721
1040
503.04580138695297
1040
132.85091120520289
1070
     1
1040
503.04580138695297
1040
132.85091120520289
1040
503.54572551099812
1040
133.6716268587935
1070
     1
1040
503.54572551099812
1040
133.67162685879339
1040
503.85554855835892
1040
134.58130152216211
1070
     1
1040
503.85554855835892
1040
134.58130152216211
1040
503.96049154856911
1040
135.53654247744859
1070
     1
1040
503.96049154856911
1040
135.53654247744851
1040
503.96049154856911
1040
179.1783236382357
1070
     1
1040
503.96049154856911
1040
179.1783236382357
1040
502.96049154856922
1040
179.1783236382357
1070
     1
1040
502.96049154856922
1040
179.1783236382357
1040
502.96049154856922
1040
135.53654247744859
1070
     1
1040
502.96049154856922
1040
135.53654247744851
1040
502.87939923795221
1040
134.79840173927261
1070
     1
1040
502.8793992379521
1040
134.79840173927261
1040
502.63999051953692
1040
134.0954713175787
1070
     1
1040
502.63999051953698
1040
134.0954713175787
1040
502.2536855145932
1040
133.46128194889511
1070
     1
1040
502.25368551459309
1040
133.46128194889511
1040
501.73891149691713
1040
132.9260853280895
1070
     1
1040
501.73891149691713
1040
132.9260853280895
1040
501.1202238868259
1040
132.5154110614065
1070
     1
1040
501.1202238868259
1040
132.5154110614065
1040
500.42713492423371
1040
132.24884886954999
1070
     1
1040
500.42713492423371
1040
132.24884886954999
1040
485.26004413457122
1040
128.96317054966599
1070
     1
1040
485.26004413457122
1040
128.96317054966599
1040
469.98207245602839
1040
127.0297500739985
1070
     1
1040
469.98207245602839
1040
127.0297500739984
1040
454.53362420991908
1040
126.4489538938016
1070
     1
1040
454.53362420991908
1040
126.4489538938016
1040
439.09348643230101
1040
127.21968265531289
1070
     1
1040
439.09348643230101
1040
127.21968265531289
1040
423.84044615923187
1040
129.34083700476981
1070
     1
1040
423.84044615923187
1040
129.34083700476981
1040
408.71490771202463
1040
132.812783393427
1070
     1
1040
408.71490771202463
1040
132.812783393427
1040
401.75086941889782
1040
142.26397821981291
1070
     1
1040
401.75086941889782
1040
142.26397821981291
1040
386.942355114169
1040
147.4629040281668
1070
     1
1040
386.942355114169
1040
147.4629040281668
1040
371.96740285752861
1040
151.36209838443219
1070
     1
1040
371.96740285752861
1040
151.36209838443219
1040
356.8260126489767
1040
153.961561288609
1070
     1
1040
356.8260126489767
1040
153.961561288609
1040
341.4072258539058
1040
155.26129274069751
1070
     1
1040
341.4072258539058
1040
155.26129274069751
1040
325.82200110692332
1040
155.26129274069751
1070
     1
1040
325.82200110692332
1040
155.26129274069751
1040
310.4032143118522
1040
153.961561288609
1070
     1
1040
310.4032143118522
1040
153.961561288609
1040
295.2618241033004
1040
151.36209838443219
1070
     1
1040
295.2618241033004
1040
151.36209838443219
1040
280.28687184666001
1040
147.4629040281668
1070
     1
1040
280.28687184666001
1040
147.4629040281668
1040
265.47835754193108
1040
142.263978219813
1070
     1
1040
265.47835754193108
1040
142.26397821981291
1040
258.51431924880592
1040
132.81278339342751
1070
     1
1040
258.51431924880598
1040
132.81278339342751
1040
243.03006496905061
1040
129.27568699374311
1070
     1
1040
243.03006496905061
1040
129.27568699374311
1040
227.4181127095454
1040
127.15342915393229
1070
     1
1040
227.4181127095454
1040
127.15342915393229
1040
211.61461348041561
1040
126.44600987399529
1070
     1
1040
211.61461348041561
1040
126.44600987399529
1040
195.81111425128569
1040
127.15342915393209
1070
     1
1040
195.81111425128569
1040
127.15342915393209
1040
180.1991619917805
1040
129.2756869937426
1070
     1
1040
180.1991619917805
1040
129.2756869937426
1040
164.714907712024
1040
132.81278339342731
1070
     1
1040
164.714907712024
1040
132.81278339342731
1040
157.75086941889779
1040
142.26397821981291
1070
     1
1040
157.75086941889779
1040
142.26397821981291
1040
142.94235511416881
1040
147.4629040281668
1070
     1
1040
142.94235511416881
1040
147.4629040281668
1040
127.9674028575284
1040
151.36209838443219
1070
     1
1040
127.9674028575284
1040
151.36209838443219
1040
112.8260126489765
1040
153.961561288609
1070
     1
1040
112.8260126489765
1040
153.961561288609
1040
97.407225853905459
1040
155.26129274069751
1070
     1
1040
97.407225853905459
1040
155.26129274069751
1040
81.822001106923054
1040
155.26129274069751
1070
     1
1040
81.822001106923054
1040
155.26129274069751
1040
66.403214311852125
1040
153.961561288609
1070
     1
1040
66.403214311852125
1040
153.961561288609
1040
51.261824103300398
1040
151.36209838443219
1070
     1
1040
51.261824103300398
1040
151.36209838443219
1040
36.286871846659842
1040
147.4629040281668
1070
     1
1040
36.286871846659842
1040
147.4629040281668
1040
21.478357541930901
1040
142.263978219813
1070
     1
1040
21.478357541930901
1040
142.26397821981291
1040
14.51431924880637
1040
132.81278339342839
1070
     1
1040
14.51431924880637
1040
132.81278339342839
1040
-0.9699350309491592
1040
129.27568699374399
1070
     1
1040
-0.9699350309491592
1040
129.27568699374399
1040
-16.581887290454571
1040
127.1534291539332
1070
     1
1040
-16.581887290454571
1040
127.1534291539332
1040
-32.385386519584699
1040
126.4460098739963
1070
     1
1040
-32.385386519584699
1040
126.4460098739963
1040
-48.188885748714931
1040
127.1534291539331
1070
     1
1040
-48.188885748714931
1040
127.1534291539331
1040
-63.800838008220353
1040
129.2756869937437
1070
     1
1040
-63.800838008220353
1040
129.2756869937437
1040
-79.285092287976909
1040
132.81278339342819
1070
     1
1040
-79.285092287976909
1040
132.81278339342819
1040
-86.249130581102463
1040
142.26397821981291
1070
     1
1040
-86.249130581102463
1040
142.26397821981291
1040
-98.167496532673681
1040
146.56872388000909
1070
     1
1040
-98.167496532673681
1040
146.56872388000909
1040
-110.2365516745155
1040
150.02429368544901
1070
     1
1040
-110.2365516745155
1040
150.02429368544901
1040
-122.45629600662799
1040
152.63068763613239
1070
     1
1040
-122.45629600662799
1040
152.63068763613239
1040
-134.82672952901109
1040
154.38790573205961
1070
     1
1040
-134.82672952901109
1040
154.38790573205961
1040
-147.3478522416649
1040
155.29594797323051
1070
     1
1040
-147.3478522416649
1040
155.29594797323051
1040
-160.01966414458951
1040
155.35481435964499
1070
     1
1040
-160.01966414458951
1040
155.35481435964499
1040
-160.01966414459079
1040
154.35433609091999
1070
     1
1040
-160.01966414459079
1040
154.35433609091999
1040
-147.46028420726981
1040
154.2997148814039
1070
     1
1040
-147.46028420726981
1040
154.2997148814039
1040
-135.0490377365436
1040
153.40609932328121
1070
     1
1040
-135.0490377365436
1040
153.40609932328121
1040
-122.7859247324122
1040
151.673489416552
1070
     1
1040
-122.7859247324122
1040
151.673489416552
1040
-110.6709451948755
1040
149.10188516121619
1070
     1
1040
-110.6709451948755
1040
149.10188516121619
1040
-98.704099123933702
1040
145.69128655727391
1070
     1
1040
-98.704099123933702
1040
145.69128655727391
1040
-86.885386519585381
1040
141.44169360472461
1070
     1
1040
-86.885386519585381
1040
141.44169360472461
1040
-79.885386519586518
1040
131.94169360472611
1070
     1
1040
-79.885386519586518
1040
131.94169360472611
1040
-64.205155122692986
1040
128.33306466459669
1070
     1
1040
-64.205155122692986
1040
128.33306466459669
1040
-48.393693494565127
1040
126.167887300519
1070
     1
1040
-48.393693494565127
1040
126.167887300519
1040
-32.38538651958573
1040
125.44616151249311
1070
     1
1040
-32.38538651958573
1040
125.44616151249311
1040
-16.377079544606431
1040
126.167887300519
1070
     1
1040
-16.377079544606431
1040
126.167887300519
1040
-0.5656179164786295
1040
128.33306466459669
1070
     1
1040
-0.5656179164786295
1040
128.33306466459669
1040
15.11461348041496
1040
131.94169360472611
1070
     1
1040
15.11461348041496
1040
131.94169360472611
1040
22.114613480412689
1040
141.44169360472421
1070
     1
1040
22.114613480412689
1040
141.44169360472421
1040
36.787579629437353
1040
146.570563811467
1070
     1
1040
36.787579629437353
1040
146.570563811467
1040
51.624062703949733
1040
150.41721646652431
1070
     1
1040
51.624062703949733
1040
150.41721646652431
1040
66.624062703949846
1040
152.98165156989569
1070
     1
1040
66.624062703949846
1040
152.9816515698958
1040
81.896590913096304
1040
154.26386912158159
1070
     1
1040
81.896590913096304
1040
154.26386912158159
1040
97.332636047730318
1040
154.26386912158171
1070
     1
1040
97.332636047730318
1040
154.26386912158171
1040
112.60516425687671
1040
152.981651569896
1070
     1
1040
112.60516425687671
1040
152.981651569896
1040
127.6051642568768
1040
150.41721646652471
1070
     1
1040
127.6051642568768
1040
150.41721646652471
1040
142.44164733138931
1040
146.57056381146771
1070
     1
1040
142.44164733138931
1040
146.57056381146771
1040
157.11461348041499
1040
141.44169360472449
1070
     1
1040
157.11461348041499
1040
141.44169360472441
1040
164.1146134804145
1040
131.94169360472529
1070
     1
1040
164.1146134804145
1040
131.94169360472529
1040
179.7948448773077
1040
128.3330646645957
1070
     1
1040
179.7948448773077
1040
128.3330646645957
1040
195.60630650543541
1040
126.1678873005181
1070
     1
1040
195.60630650543541
1040
126.1678873005181
1040
211.61461348041459
1040
125.4461615124922
1071
        0
1070
     0
1070
     1
1071
        1
1040
503.96049154856848
1040
179.1783236382355
1040
0.0
1002
}
  0
LINE
  5
30C
  8
0
 10
503.96049154856848
 20
179.1783236382355
 30
0.0
 11
502.96049154856843
 21
179.1783236382355
 31
0.0
1001
REVIT
1002
{
1070
     3
1000
476644
1002
}
  0
LINE
  5
30D
  8
0
 10
502.96049154856843
 20
179.1783236382355
 30
0.0
 11
502.96049154856843
 21
135.53654247744831
 31
0.0
1001
REVIT
1002
{
1070
     3
1000
476644
1002
}
  0
ARC
  5
30E
  8
0
 10
499.56049154856839
 20
135.53654247744831
 30
0.0
 40
3.3999999999999519
 50
284.76737004574022
 51
0.0
1001
REVIT
1002
{
1070
     3
1000
476644
1002
}
  0
ARC
  5
30F
  8
0
 10
455.61461348041399
 20
302.24938708617913
 30
0.0
 40
175.807693438303
 50
254.5280202875303
 51
284.76737004574022
1001
REVIT
1002
{
1070
     3
1000
476644
1002
}
  0
LINE
  5
310
  8
0
 10
408.71490771202389
 20
132.81278339342671
 30
0.0
 11
401.75086941889731
 21
142.26397821981271
 31
0.0
1001
REVIT
1002
{
1070
     3
1000
476644
1002
}
  0
ARC
  5
311
  8
0
 10
333.61461348041411
 20
-27.298693358165931
 30
0.0
 40
182.7403867949719
 50
68.108000327179482
 51
111.8919996728205
1001
REVIT
1002
{
1070
     3
1000
476644
1002
}
  0
LINE
  5
312
  8
0
 10
265.47835754193068
 20
142.26397821981271
 30
0.0
 11
258.5143192488045
 21
132.812783393427
 31
0.0
1001
REVIT
1002
{
1070
     3
1000
476644
1002
}
  0
ARC
  5
313
  8
0
 10
211.61461348041399
 20
302.24938708617373
 30
0.0
 40
175.8076934382976
 50
254.5280202875299
 51
285.4719797124701
1001
REVIT
1002
{
1070
     3
1000
476644
1002
}
  0
LINE
  5
314
  8
0
 10
164.71490771202369
 20
132.81278339342711
 30
0.0
 11
157.75086941889751
 21
142.26397821981271
 31
0.0
1001
REVIT
1002
{
1070
     3
1000
476644
1002
}
  0
ARC
  5
315
  8
0
 10
89.614613480414107
 20
-27.298693358165909
 30
0.0
 40
182.74038679497181
 50
68.108000327179482
 51
111.8919996728205
1001
REVIT
1002
{
1070
     3
1000
476644
1002
}
  0
LINE
  5
316
  8
0
 10
21.47835754193073
 20
142.26397821981271
 30
0.0
 11
14.514319248805061
 21
132.81278339342791
 31
0.0
1001
REVIT
1002
{
1070
     3
1000
476644
1002
}
  0
ARC
  5
317
  8
0
 10
-32.38538651958595
 20
302.24938708618367
 30
0.0
 40
175.8076934383065
 50
254.5280202875303
 51
285.4719797124697
1001
REVIT
1002
{
1070
     3
1000
476644
1002
}
  0
LINE
  5
318
  8
0
 10
-79.285092287977022
 20
132.81278339342791
 30
0.0
 11
-86.24913058110269
 21
142.26397821981271
 31
0.0
1001
REVIT
1002
{
1070
     3
1000
476644
1002
}
  0
ARC
  5
319
  8
0
 10
-154.38538651958569
 20
-27.298693358165419
 30
0.0
 40
182.7403867949713
 50
68.108000327179482
 51
91.766831638607115
1001
REVIT
1002
{
1070
     3
1000
476644
1002
}
  0
LINE
  5
31A
  8
0
 10
-160.01966414458951
 20
155.35481435964479
 30
0.0
 11
-160.01966414458951
 21
154.3543360909197
 31
0.0
1001
REVIT
1002
{
1070
     3
1000
476644
1002
}
  0
ARC
  5
31B
  8
0
 10
-154.38538651958601
 20
-27.298693358166869
 30
0.0
 40
181.74038679497289
 50
68.197464968812398
 51
91.776556480496424
1001
REVIT
1002
{
1070
     3
1000
476644
1002
}
  0
LINE
  5
31C
  8
0
 10
-86.885386519585495
 20
141.44169360472429
 30
0.0
 11
-79.885386519586632
 21
131.94169360472591
 31
0.0
1001
REVIT
1002
{
1070
     3
1000
476644
1002
}
  0
ARC
  5
31D
  8
0
 10
-32.38538651958595
 20
302.24938708618402
 30
0.0
 40
176.8076934383069
 50
254.41584394575011
 51
285.58415605424989
1001
REVIT
1002
{
1070
     3
1000
476644
1002
}
  0
LINE
  5
31E
  8
0
 10
15.114613480414731
 20
131.94169360472591
 30
0.0
 11
22.114613480413539
 21
141.44169360472429
 31
0.0
1001
REVIT
1002
{
1070
     3
1000
476644
1002
}
  0
ARC
  5
31F
  8
0
 10
89.61461348041405
 20
-27.298693358165771
 30
0.0
 40
181.7403867949717
 50
68.197464968812398
 51
111.8025350311876
1001
REVIT
1002
{
1070
     3
1000
476644
1002
}
  0
LINE
  5
320
  8
0
 10
157.11461348041459
 20
141.44169360472429
 30
0.0
 11
164.11461348041411
 21
131.941693604725
 31
0.0
1001
REVIT
1002
{
1070
     3
1000
476644
1002
}
  0
ARC
  5
321
  8
0
 10
211.61461348041399
 20
302.24938708617401
 30
0.0
 40
176.807693438298
 50
254.41584394575011
 51
285.58415605424989
1001
REVIT
1002
{
1070
     3
1000
476644
1002
}
  0
LINE
  5
322
  8
0
 10
259.11461348041411
 20
131.941693604725
 30
0.0
 11
266.1146134804136
 21
141.44169360472429
 31
0.0
1001
REVIT
1002
{
1070
     3
1000
476644
1002
}
  0
ARC
  5
323
  8
0
 10
333.61461348041411
 20
-27.298693358166052
 30
0.0
 40
181.7403867949719
 50
68.197464968812398
 51
111.8025350311876
1001
REVIT
1002
{
1070
     3
1000
476644
1002
}
  0
LINE
  5
324
  8
0
 10
401.11461348041439
 20
141.44169360472429
 30
0.0
 11
408.11461348041422
 21
131.9416936047248
 31
0.0
1001
REVIT
1002
{
1070
     3
1000
476644
1002
}
  0
ARC
  5
325
  8
0
 10
455.61461348041399
 20
302.24938708617861
 30
0.0
 40
176.80769343830249
 50
254.41584394575011
 51
284.76737004574022
1001
REVIT
1002
{
1070
     3
1000
476644
1002
}
  0
ARC
  5
326
  8
0
 10
499.56049154856839
 20
135.53654247744831
 30
0.0
 40
4.3999999999999524
 50
284.76737004574022
 51
0.0
1001
REVIT
1002
{
1070
     3
1000
476644
1002
}
  0
LINE
  5
327
  8
0
 10
503.96049154856848
 20
135.53654247744831
 30
0.0
 11
503.96049154856848
 21
179.1783236382355
 31
0.0
1001
REVIT
1002
{
1070
     3
1000
476644
1002
}
  0
INSERT
  5
328
  8
0
  6
CONTINUOUS
  2
*U32
 10
0.0
 20
0.0
 30
0.0
1001
REVIT
1002
{
1070
     3
1000
211597
1002
}
1001
ACAD
1002
{
1000
R14_HATCH_DATA
1000
328
1011
1.0
1021
0.0
1031
0.0
1021
0.0
1031
0.0
1011
0.0
1021
0.0
1031
0.0
1021
1.0
1031
0.0
1011
0.0
1021
0.0
1031
0.0
1021
0.0
1031
1.0
1040
0.0
1010
0.0
1020
0.0
1030
1.0
1000
SOLID
1070
     1
1070
     0
1071
        1
1071
        0
1071
      153
1070
     1
1040
503.95620063137608
1040
-18.533554600006791
1040
529.95620063137596
1040
-18.533554600006791
1070
     1
1040
529.95620063137596
1040
-18.533554600006791
1040
530.60324824413215
1040
-18.44836916572946
1070
     1
1040
530.60324824413215
1040
-18.44836916572946
1040
531.20620063137585
1040
-18.19861810946788
1070
     1
1040
531.20620063137585
1040
-18.19861810946788
1040
531.72396758434252
1040
-17.801321552973171
1070
     1
1040
531.72396758434229
1040
-17.801321552973171
1040
532.12126414083696
1040
-17.283554600006809
1070
     1
1040
532.12126414083696
1040
-17.283554600006809
1040
532.3710151970987
1040
-16.680602212763109
1070
     1
1040
532.3710151970987
1040
-16.680602212763109
1040
532.45620063137414
1040
-16.03355460000682
1070
     1
1040
532.45620063137414
1040
-16.03355460000682
1040
532.40424707308364
1040
13.905684179101611
1070
     1
1040
532.40424707308364
1040
13.905684179101611
1040
532.25054573598766
1040
14.391630359688589
1070
     1
1040
532.25054573598766
1040
14.391630359688589
1040
532.00148488518676
1040
14.83630606630024
1070
     1
1040
532.00148488518698
1040
14.83630606630024
1040
531.66741619862535
1040
15.22122931074143
1070
     1
1040
531.66741619862535
1040
15.22122931074143
1040
529.72903007908656
1040
17.083949054533399
1070
     1
1040
529.72903007908656
1040
17.083949054533399
1040
529.57959356860601
1040
17.350754478500338
1070
     1
1040
529.57959356860601
1040
17.350754478500338
1040
529.48737276634836
1040
17.642322186852422
1070
     1
1040
529.48737276634836
1040
17.642322186852422
1040
529.45620063137585
1040
17.946533795644651
1070
     1
1040
529.45620063137596
1040
17.946533795644651
1040
529.50731189194232
1040
56.026246842901728
1070
     1
1040
529.50731189194232
1040
56.026246842901728
1040
529.65716252569916
1040
56.388018275248029
1070
     1
1040
529.65716252569916
1040
56.388018275248029
1040
529.89554045959642
1040
56.698678447027959
1070
     1
1040
529.89554045959642
1040
56.698678447027959
1040
531.72396758434058
1040
58.527105571772317
1070
     1
1040
531.72396758434058
1040
58.527105571772331
1040
532.12126414083536
1040
59.044872524738558
1070
     1
1040
532.12126414083536
1040
59.044872524738558
1040
532.37101519709665
1040
59.647824911982198
1070
     1
1040
532.37101519709688
1040
59.647824911982191
1040
532.45620063137244
1040
60.294872524738281
1070
     1
1040
532.45620063137244
1040
60.294872524738281
1040
532.45620063137244
1040
88.638018275247816
1070
     1
1040
532.45620063137244
1040
88.638018275247816
1040
532.37101519709495
1040
89.285065888003629
1070
     1
1040
532.37101519709495
1040
89.285065888003629
1040
532.12126414083377
1040
89.888018275246992
1070
     1
1040
532.12126414083377
1040
89.888018275246992
1040
531.72396758433979
1040
90.40578522821329
1070
     1
1040
531.72396758433979
1040
90.40578522821329
1040
529.65716252569723
1040
92.544872524741905
1070
     1
1040
529.65716252569723
1040
92.544872524741905
1040
529.50731189194028
1040
92.906643957088022
1070
     1
1040
529.50731189194028
1040
92.906643957087994
1040
529.45620063137414
1040
93.294872524741464
1070
     1
1040
529.45620063137414
1040
93.294872524741464
1040
529.48737276634847
1040
131.29056861313509
1070
     1
1040
529.48737276634859
1040
131.29056861313509
1040
529.57959356860692
1040
131.58213632148821
1070
     1
1040
529.57959356860692
1040
131.58213632148821
1040
529.72903007908826
1040
131.84894174545579
1070
     1
1040
529.72903007908826
1040
131.84894174545579
1040
529.92947129102618
1040
132.0798956921208
1070
     1
1040
529.92947129102618
1040
132.0798956921208
1040
532.00148488518425
1040
134.09658473367401
1070
     1
1040
532.00148488518425
1040
134.09658473367401
1040
532.25054573598652
1040
134.54126044028661
1070
     1
1040
532.25054573598641
1040
134.54126044028661
1040
532.4042470730833
1040
135.02720662087501
1070
     1
1040
532.40424707308341
1040
135.02720662087501
1040
532.45620063137608
1040
135.53422596886361
1070
     1
1040
532.45620063137608
1040
135.53422596886361
1040
532.45620063137608
1040
180.1783236382347
1070
     1
1040
532.45620063137608
1040
180.1783236382347
1040
532.3710151970987
1040
180.825371250991
1070
     1
1040
532.3710151970987
1040
180.825371250991
1040
532.12126414083696
1040
181.4283236382347
1070
     1
1040
532.12126414083696
1040
181.4283236382347
1040
531.72396758434252
1040
181.94609059120111
1070
     1
1040
531.72396758434229
1040
181.94609059120111
1040
531.20620063137585
1040
182.34338714769589
1070
     1
1040
531.20620063137585
1040
182.34338714769589
1040
530.60324824413215
1040
182.59313820395741
1070
     1
1040
530.60324824413215
1040
182.59313820395741
1040
529.95620063137596
1040
182.67832363823661
1070
     1
1040
529.95620063137596
1040
182.67832363823669
1040
501.31943839852278
1040
182.67832363823669
1070
     1
1040
501.31943839852278
1040
182.67832363823669
1040
500.73283882398169
1040
182.6085295840669
1070
     1
1040
500.73283882398169
1040
182.60852958406679
1040
500.17899217942602
1040
182.4030443895553
1070
     1
1040
500.17899217942602
1040
182.4030443895553
1040
499.68882262702499
1040
182.07334137053971
1070
     1
1040
499.68882262702499
1040
182.07334137053971
1040
499.28969890301278
1040
181.63782957531521
1070
     1
1040
499.28969890301278
1040
181.63782957531521
1040
499.00390617764072
1040
181.12082591094381
1070
     1
1040
499.00390617764077
1040
181.12082591094381
1040
498.8474017572737
1040
180.55119740283109
1070
     1
1040
498.8474017572737
1040
180.55119740283121
1040
495.44861051561878
1040
158.01827263549259
1070
     1
1040
495.44861051561878
1040
158.01827263549259
1040
496.4374251721182
1040
157.86912312965481
1070
     1
1040
496.4374251721182
1040
157.86912312965481
1040
499.93011906599338
1040
180.7438250018609
1070
     1
1040
499.93011906599338
1040
180.7438250018609
1040
500.1015947012167
1040
181.05402720048369
1070
     1
1040
500.1015947012167
1040
181.05402720048369
1040
500.34106893562421
1040
181.3153342776184
1070
     1
1040
500.34106893562421
1040
181.3153342776184
1040
500.63517066706459
1040
181.5131560890278
1070
     1
1040
500.63517066706459
1040
181.5131560890278
1040
500.96747865379831
1040
181.6364472057347
1070
     1
1040
500.9674786537982
1040
181.63644720573481
1040
501.31943839852272
1040
181.67832363823669
1070
     1
1040
501.31943839852278
1040
181.67832363823669
1040
530.34442919902972
1040
181.6272123776684
1070
     1
1040
530.34442919902972
1040
181.6272123776684
1040
530.70620063137585
1040
181.47736174391139
1070
     1
1040
530.70620063137585
1040
181.47736174391139
1040
531.01686080315574
1040
181.23898381001459
1070
     1
1040
531.01686080315574
1040
181.23898381001459
1040
531.25523873705265
1040
180.92832363823479
1070
     1
1040
531.25523873705265
1040
180.9283236382347
1040
531.40508937080949
1040
180.5665522058886
1070
     1
1040
531.40508937080949
1040
180.5665522058886
1040
531.45620063137585
1040
180.1783236382347
1070
     1
1040
531.45620063137585
1040
180.1783236382347
1040
531.42502849639948
1040
135.2300143600703
1070
     1
1040
531.42502849639948
1040
135.2300143600703
1040
531.33280769414148
1040
134.9384466517173
1070
     1
1040
531.33280769414148
1040
134.9384466517173
1040
531.18337118366014
1040
134.67164122774969
1070
     1
1040
531.18337118366014
1040
134.67164122774969
1040
530.98292997172177
1040
134.44068728108459
1070
     1
1040
530.98292997172177
1040
134.44068728108459
1040
528.91091637756415
1040
132.4239982395315
1070
     1
1040
528.91091637756415
1040
132.4239982395315
1040
528.66185552676188
1040
131.9793225329189
1070
     1
1040
528.661855526762
1040
131.9793225329189
1040
528.50815418966499
1040
131.49337635233061
1070
     1
1040
528.50815418966499
1040
131.49337635233061
1040
528.45620063137403
1040
130.98635700434201
1070
     1
1040
528.45620063137414
1040
130.98635700434201
1040
528.45620063137414
1040
93.294872524741464
1070
     1
1040
528.45620063137414
1040
93.294872524741464
1040
528.54138606565152
1040
92.647824911985637
1070
     1
1040
528.54138606565152
1040
92.647824911985637
1040
528.79113712191247
1040
92.044872524742345
1070
     1
1040
528.79113712191236
1040
92.044872524742345
1040
529.18843367840657
1040
91.527105571776204
1070
     1
1040
529.18843367840657
1040
91.527105571776204
1040
531.25523873704935
1040
89.388018275247504
1070
     1
1040
531.25523873704924
1040
89.388018275247504
1040
531.40508937080608
1040
89.026246842901344
1070
     1
1040
531.40508937080608
1040
89.026246842901344
1040
531.45620063137233
1040
88.638018275247816
1070
     1
1040
531.45620063137233
1040
88.638018275247816
1040
531.40508937080767
1040
59.906643957084754
1070
     1
1040
531.40508937080779
1040
59.906643957084739
1040
531.25523873705083
1040
59.544872524738651
1070
     1
1040
531.25523873705083
1040
59.544872524738651
1040
531.01686080315415
1040
59.23421235295887
1070
     1
1040
531.01686080315415
1040
59.23421235295887
1040
529.18843367840964
1040
57.405785228214491
1070
     1
1040
529.18843367840964
1040
57.405785228214476
1040
528.79113712191486
1040
56.88801827524798
1070
     1
1040
528.79113712191486
1040
56.88801827524798
1040
528.54138606565334
1040
56.285065888004233
1070
     1
1040
528.54138606565334
1040
56.285065888004233
1040
528.45620063137608
1040
55.638018275247731
1070
     1
1040
528.45620063137608
1040
55.638018275247731
1040
528.50815418966454
1040
17.439514447657679
1070
     1
1040
528.50815418966454
1040
17.439514447657679
1040
528.66185552676075
1040
16.953568267070839
1070
     1
1040
528.66185552676063
1040
16.953568267070839
1040
528.91091637756153
1040
16.508892560459191
1070
     1
1040
528.91091637756153
1040
16.508892560459191
1040
529.24498506412294
1040
16.123969316018002
1070
     1
1040
529.24498506412283
1040
16.123969316018002
1040
531.18337118366162
1040
14.26124957222603
1070
     1
1040
531.18337118366162
1040
14.26124957222603
1040
531.33280769414205
1040
13.99444414825909
1070
     1
1040
531.33280769414205
1040
13.99444414825909
1040
531.42502849639959
1040
13.70287643990687
1070
     1
1040
531.42502849639982
1040
13.70287643990687
1040
531.45620063137414
1040
13.39866483111464
1070
     1
1040
531.45620063137414
1040
13.39866483111464
1040
531.40508937080949
1040
-16.421783167660621
1070
     1
1040
531.40508937080949
1040
-16.421783167660621
1040
531.25523873705265
1040
-16.783554600006791
1070
     1
1040
531.25523873705265
1040
-16.783554600006791
1040
531.01686080315585
1040
-17.09421477178671
1070
     1
1040
531.01686080315585
1040
-17.09421477178671
1040
530.70620063137585
1040
-17.3325927056834
1070
     1
1040
530.70620063137585
1040
-17.3325927056834
1040
530.34442919902995
1040
-17.48244333944038
1070
     1
1040
530.34442919902995
1040
-17.48244333944038
1040
529.95620063137596
1040
-17.533554600006749
1070
     1
1040
529.95620063137596
1040
-17.533554600006749
1040
503.56797206372221
1040
-17.482443339440511
1070
     1
1040
503.56797206372221
1040
-17.482443339440511
1040
503.20620063137602
1040
-17.3325927056834
1070
     1
1040
503.20620063137602
1040
-17.3325927056834
1040
502.89554045959619
1040
-17.094214771786572
1070
     1
1040
502.89554045959619
1040
-17.094214771786572
1040
502.65716252569928
1040
-16.783554600006649
1070
     1
1040
502.65716252569928
1040
-16.783554600006649
1040
502.50731189194232
1040
-16.421783167660479
1070
     1
1040
502.50731189194232
1040
-16.421783167660479
1040
502.45620063137579
1040
-16.03355460000655
1070
     1
1040
502.45620063137579
1040
-16.03355460000655
1040
502.50731189194062
1040
-8.6602963367118946
1070
     1
1040
502.50731189194062
1040
-8.6602963367118946
1040
502.6571625256974
1040
-8.2985249043657277
1070
     1
1040
502.6571625256974
1040
-8.2985249043657277
1040
502.89554045959437
1040
-7.9878647325858054
1070
     1
1040
502.89554045959437
1040
-7.9878647325858054
1040
503.20620063137409
1040
-7.7494867986891123
1070
     1
1040
503.2062006313742
1040
-7.7494867986891123
1040
503.56797206372039
1040
-7.5996361649321349
1070
     1
1040
503.56797206372028
1040
-7.5996361649321349
1040
503.9562006313738
1040
-7.5485249043657632
1070
     1
1040
503.9562006313738
1040
-7.5485249043657632
1040
507.5984879887136
1040
-7.5485249043648182
1070
     1
1040
507.5984879887136
1040
-7.5485249043648182
1040
508.46661932019367
1040
-7.4391513938653651
1070
     1
1040
508.46661932019367
1040
-7.4391513938653651
1040
509.28049318236009
1040
-7.1178666136807029
1070
     1
1040
509.28049318236009
1040
-7.1178666136807029
1040
509.98924315155102
1040
-6.6047505891130314
1070
     1
1040
509.98924315155102
1040
-6.6047505891130314
1040
510.54857295793948
1040
-5.9318726349626303
1070
     1
1040
510.54857295793948
1040
-5.9318726349626303
1040
510.92352496469613
1040
-5.1412870506484429
1070
     1
1040
510.92352496469613
1040
-5.1412870506484429
1040
511.0906649905362
1040
-4.2824047622885004
1070
     1
1040
511.0906649905362
1040
-4.2824047622885004
1040
511.039546926105
1040
-3.408905181873521
1070
     1
1040
511.039546926105
1040
-3.408905181873521
1040
510.77336560692089
1040
-2.5753812897065198
1070
     1
1040
510.77336560692089
1040
-2.5753812897065198
1040
510.308757138874
1040
-1.8339276195992791
1070
     1
1040
510.30875713887389
1040
-1.8339276195992791
1040
509.67475915576921
1040
-1.2308843948505479
1070
     1
1040
509.67475915576921
1040
-1.2308843948505479
1040
508.91099599192768
1040
-0.8039413037310011
1070
     1
1040
508.91099599192768
1040
-0.8039413037310011
1040
501.43154399424202
1040
2.2216674692096769
1070
     1
1040
501.43154399424202
1040
2.2216674692096769
1040
501.05654170760948
1040
1.2946435833143819
1070
     1
1040
501.05654170760948
1040
1.2946435833143819
1040
508.53599370529503
1040
-1.7309651896262961
1070
     1
1040
508.53599370529503
1040
-1.7309651896262961
1040
509.08153882232489
1040
-2.0359245404259951
1070
     1
1040
509.08153882232489
1040
-2.0359245404259951
1040
509.53439452454239
1040
-2.4666697009607428
1070
     1
1040
509.53439452454239
1040
-2.4666697009607428
1040
509.86625771600461
1040
-2.996279465323112
1070
     1
1040
509.86625771600461
1040
-2.996279465323112
1040
510.05638722970752
1040
-3.5916536740138261
1070
     1
1040
510.05638722970752
1040
-3.5916536740138261
1040
510.09290013287273
1040
-4.2155819457389114
1070
     1
1040
510.09290013287278
1040
-4.2155819457389114
1040
509.97351440012972
1040
-4.829069294567403
1070
     1
1040
509.97351440012972
1040
-4.829069294567403
1040
509.70569153816081
1040
-5.393773283363231
1070
     1
1040
509.70569153816081
1040
-5.393773283363231
1040
509.3061702478833
1040
-5.8744003934706583
1070
     1
1040
509.3061702478833
1040
-5.8744003934706583
1040
508.79992026988958
1040
-6.2409118395905017
1070
     1
1040
508.79992026988958
1040
-6.2409118395905017
1040
508.21858179691361
1040
-6.4704009682937951
1070
     1
1040
508.21858179691361
1040
-6.4704009682937951
1040
507.5984879887136
1040
-6.5485249043657197
1070
     1
1040
507.5984879887136
1040
-6.5485249043657197
1040
503.9562006313738
1040
-6.5485249043657197
1070
     1
1040
503.9562006313738
1040
-6.5485249043657197
1040
503.30915301861791
1040
-6.6337103386430547
1070
     1
1040
503.30915301861779
1040
-6.6337103386430547
1040
502.70620063137409
1040
-6.8834613949046348
1070
     1
1040
502.70620063137409
1040
-6.8834613949046348
1040
502.18843367840759
1040
-7.2807579513993437
1070
     1
1040
502.18843367840759
1040
-7.2807579513993437
1040
501.79113712191298
1040
-7.7985249043657063
1070
     1
1040
501.79113712191298
1040
-7.7985249043657063
1040
501.54138606565141
1040
-8.4014772916094032
1070
     1
1040
501.54138606565141
1040
-8.4014772916094032
1040
501.45620063137591
1040
-9.0485249043655571
1070
     1
1040
501.45620063137591
1040
-9.0485249043655571
1040
501.47174814375461
1040
-16.151649681099482
1070
     1
1040
501.47174814375461
1040
-16.151649681099482
1040
501.54138606565328
1040
-16.680602212762981
1070
     1
1040
501.54138606565328
1040
-16.680602212762981
1040
501.79113712191491
1040
-17.283554600006809
1070
     1
1040
501.79113712191491
1040
-17.283554600006809
1040
502.18843367840958
1040
-17.801321552973171
1070
     1
1040
502.18843367840958
1040
-17.801321552973171
1040
502.70620063137602
1040
-18.19861810946788
1070
     1
1040
502.70620063137602
1040
-18.19861810946788
1040
503.30915301861972
1040
-18.44836916572946
1070
     1
1040
503.30915301861972
1040
-18.44836916572946
1040
503.95620063137608
1040
-18.533554600006791
1071
        0
1070
     0
1070
     1
1071
        1
1040
425.0
1040
37.451475095635111
1040
0.0
1002
}
  0
LINE
  5
329
  8
0
 10
451.88621608181887
 20
72.951475095635104
 30
0.0
 11
451.88621608181887
 21
10.94045637669667
 31
0.0
1001
REVIT
1002
{
1070
     3
1000
211597
1002
}
  0
LINE
  5
32A
  8
0
 10
451.88621608181887
 20
10.94045637669667
 30
0.0
 11
500.0
 21
10.94045637669667
 31
0.0
1001
REVIT
1002
{
1070
     3
1000
211597
1002
}
  0
LINE
  5
32B
  8
0
 10
500.0
 20
10.94045637669667
 30
0.0
 11
503.85192449387461
 21
10.94045637669667
 31
0.0
1001
REVIT
1002
{
1070
     3
1000
211597
1002
}
  0
ARC
  5
32C
  8
0
 10
503.59848798871468
 20
0.9436683956573901
 30
0.0
 40
9.9999999999999645
 50
0.0000000000004071
 51
88.547760297267274
1001
REVIT
1002
{
1070
     3
1000
211597
1002
}
  0
LINE
  5
32D
  8
0
 10
513.59848798871451
 20
0.9436683956573901
 30
0.0
 11
513.59848798871451
 21
-4.0485249043648892
 31
0.0
1001
REVIT
1002
{
1070
     3
1000
211597
1002
}
  0
ARC
  5
32E
  8
0
 10
507.59848798871462
 20
-4.0485249043648892
 30
0.0
 40
6.0000000000000133
 50
270.0
 51
0.0000000000004071
1001
REVIT
1002
{
1070
     3
1000
211597
1002
}
  0
LINE
  5
32F
  8
0
 10
507.59848798871462
 20
-10.048524904364911
 30
0.0
 11
504.95620063137528
 21
-10.048524904364911
 31
0.0
1001
REVIT
1002
{
1070
     3
1000
211597
1002
}
  0
LINE
  5
330
  8
0
 10
504.95620063137528
 20
-10.048524904364911
 30
0.0
 11
504.95620063137528
 21
-15.033554600006861
 31
0.0
1001
REVIT
1002
{
1070
     3
1000
211597
1002
}
  0
LINE
  5
331
  8
0
 10
504.95620063137528
 20
-15.033554600006861
 30
0.0
 11
528.95620063137164
 21
-15.033554600006861
 31
0.0
1001
REVIT
1002
{
1070
     3
1000
211597
1002
}
  0
LINE
  5
332
  8
0
 10
528.95620063137164
 20
-15.033554600006861
 30
0.0
 11
528.95620063137164
 21
12.96587661343262
 31
0.0
1001
REVIT
1002
{
1070
     3
1000
211597
1002
}
  0
LINE
  5
333
  8
0
 10
528.95620063137164
 20
12.96587661343262
 30
0.0
 11
527.53376949687095
 21
14.30140483638962
 31
0.0
1001
REVIT
1002
{
1070
     3
1000
211597
1002
}
  0
ARC
  5
334
  8
0
 10
530.95620063137255
 20
17.946533795642509
 30
0.0
 40
4.9999999999990576
 50
180.0
 51
226.80478480758291
1001
REVIT
1002
{
1070
     3
1000
211597
1002
}
  0
LINE
  5
335
  8
0
 10
525.95620063137528
 20
17.946533795642502
 30
0.0
 11
525.95620063137528
 21
55.63801827524675
 31
0.0
1001
REVIT
1002
{
1070
     3
1000
211597
1002
}
  0
ARC
  5
336
  8
0
 10
530.95620063137756
 20
55.63801827524675
 30
0.0
 40
5.00000000000216
 50
134.99999999998241
 51
180.0000000000004
1001
REVIT
1002
{
1070
     3
1000
211597
1002
}
  0
LINE
  5
337
  8
0
 10
527.42066672544433
 20
59.173552181182082
 30
0.0
 11
528.95620063137358
 21
60.7090860871104
 31
0.0
1001
REVIT
1002
{
1070
     3
1000
211597
1002
}
  0
LINE
  5
338
  8
0
 10
528.95620063137358
 20
60.7090860871104
 30
0.0
 11
528.95620063137358
 21
88.223804712874056
 31
0.0
1001
REVIT
1002
{
1070
     3
1000
211597
1002
}
  0
LINE
  5
339
  8
0
 10
528.95620063137358
 20
88.223804712874056
 30
0.0
 11
527.42066672544001
 21
89.759338618809494
 31
0.0
1001
REVIT
1002
{
1070
     3
1000
211597
1002
}
  0
ARC
  5
33A
  8
0
 10
530.95620063137756
 20
93.294872524743027
 30
0.0
 40
5.0000000000040687
 50
180.0
 51
224.9999999999666
1001
REVIT
1002
{
1070
     3
1000
211597
1002
}
  0
LINE
  5
33B
  8
0
 10
525.95620063137358
 20
93.294872524743027
 30
0.0
 11
525.95620063137358
 21
130.986357004339
 31
0.0
1001
REVIT
1002
{
1070
     3
1000
211597
1002
}
  0
ARC
  5
33C
  8
0
 10
530.95620063137642
 20
130.98635700433911
 30
0.0
 40
5.0000000000027924
 50
133.1952151922157
 51
180.0000000000004
1001
REVIT
1002
{
1070
     3
1000
211597
1002
}
  0
LINE
  5
33D
  8
0
 10
527.53376949688504
 20
134.63148596360671
 30
0.0
 11
528.9562006313754
 21
135.9670141865445
 31
0.0
1001
REVIT
1002
{
1070
     3
1000
211597
1002
}
  0
LINE
  5
33E
  8
0
 10
528.9562006313754
 20
135.9670141865445
 30
0.0
 11
528.9562006313754
 21
179.17832363823541
 31
0.0
1001
REVIT
1002
{
1070
     3
1000
211597
1002
}
  0
LINE
  5
33F
  8
0
 10
528.9562006313754
 20
179.17832363823541
 30
0.0
 11
510.59848798871462
 21
179.17832363823541
 31
0.0
1001
REVIT
1002
{
1070
     3
1000
211597
1002
}
  0
LINE
  5
340
  8
0
 10
510.59848798871462
 20
179.17832363823541
 30
0.0
 11
510.59848798871462
 21
82.933549635898999
 31
0.0
1001
REVIT
1002
{
1070
     3
1000
211597
1002
}
  0
ARC
  5
341
  8
0
 10
500.59848798871451
 20
82.933549635898999
 30
0.0
 40
10.000000000000091
 50
266.56886601558381
 51
0.0000000000004071
1001
REVIT
1002
{
1070
     3
1000
211597
1002
}
  0
LINE
  5
342
  8
0
 10
500.00000000001512
 20
72.951475095635104
 30
0.0
 11
451.88621608181887
 21
72.951475095635104
 31
0.0
1001
REVIT
1002
{
1070
     3
1000
211597
1002
}
  0
LINE
  5
343
  8
0
 10
495.44861051561833
 20
158.01827263549239
 30
0.0
 11
496.4374251721178
 21
157.8691231296545
 31
0.0
1001
REVIT
1002
{
1070
     3
1000
476644
1002
}
  0
LINE
  5
344
  8
0
 10
496.4374251721178
 20
157.8691231296545
 30
0.0
 11
499.8362164137726
 21
180.402047896993
 31
0.0
1001
REVIT
1002
{
1070
     3
1000
476644
1002
}
  0
ARC
  5
345
  8
0
 10
501.31943839852221
 20
180.17832363823609
 30
0.0
 40
1.5000000000002549
 50
90.0
 51
171.42235759494019
1001
REVIT
1002
{
1070
     3
1000
476644
1002
}
  0
LINE
  5
346
  8
0
 10
501.31943839852221
 20
181.67832363823629
 30
0.0
 11
529.95620063137528
 21
181.67832363823629
 31
0.0
1001
REVIT
1002
{
1070
     3
1000
476644
1002
}
  0
ARC
  5
347
  8
0
 10
529.95620063137517
 20
180.17832363823439
 30
0.0
 40
1.5000000000000711
 50
0.0000000000012213
 51
90.0
1001
REVIT
1002
{
1070
     3
1000
476644
1002
}
  0
LINE
  5
348
  8
0
 10
531.4562006313754
 20
180.17832363823439
 30
0.0
 11
531.4562006313754
 21
135.5342259688633
 31
0.0
1001
REVIT
1002
{
1070
     3
1000
476644
1002
}
  0
ARC
  5
349
  8
0
 10
529.95620063137335
 20
135.5342259688633
 30
0.0
 40
1.5000000000002549
 50
313.19521519227283
 51
0.0000000000004071
1001
REVIT
1002
{
1070
     3
1000
476644
1002
}
  0
LINE
  5
34A
  8
0
 10
530.98292997172143
 20
134.44068728108439
 30
0.0
 11
529.24498506412704
 21
132.80892148397299
 31
0.0
1001
REVIT
1002
{
1070
     3
1000
476644
1002
}
  0
ARC
  5
34B
  8
0
 10
530.95620063137358
 20
130.98635700434181
 30
0.0
 40
2.5000000000000662
 50
133.1952151922728
 51
180.0
1001
REVIT
1002
{
1070
     3
1000
476644
1002
}
  0
LINE
  5
34C
  8
0
 10
528.45620063137346
 20
130.98635700434181
 30
0.0
 11
528.45620063137346
 21
93.294872524741265
 31
0.0
1001
REVIT
1002
{
1070
     3
1000
476644
1002
}
  0
ARC
  5
34D
  8
0
 10
530.95620063137392
 20
93.294872524741265
 30
0.0
 40
2.5000000000003122
 50
180.0
 51
224.9999999999574
1001
REVIT
1002
{
1070
     3
1000
476644
1002
}
  0
LINE
  5
34E
  8
0
 10
529.18843367840589
 20
91.527105571775991
 30
0.0
 11
531.01686080315221
 21
89.698678447027035
 31
0.0
1001
REVIT
1002
{
1070
     3
1000
476644
1002
}
  0
ARC
  5
34F
  8
0
 10
529.95620063137108
 20
88.638018275247575
 30
0.0
 40
1.500000000000655
 50
0.0000000000012213
 51
44.999999999957403
1001
REVIT
1002
{
1070
     3
1000
476644
1002
}
  0
LINE
  5
350
  8
0
 10
531.45620063137176
 20
88.638018275247617
 30
0.0
 11
531.45620063137176
 21
60.294872524738203
 31
0.0
1001
REVIT
1002
{
1070
     3
1000
476644
1002
}
  0
ARC
  5
351
  8
0
 10
529.95620063137403
 20
60.294872524738238
 30
0.0
 40
1.499999999999581
 50
315.00000000000119
 51
359.99999999999801
1001
REVIT
1002
{
1070
     3
1000
476644
1002
}
  0
LINE
  5
352
  8
0
 10
531.01686080315358
 20
59.234212352958757
 30
0.0
 11
529.18843367840907
 21
57.405785228214363
 31
0.0
1001
REVIT
1002
{
1070
     3
1000
476644
1002
}
  0
ARC
  5
353
  8
0
 10
530.95620063137574
 20
55.638018275247703
 30
0.0
 40
2.500000000000381
 50
135.0
 51
180.0000000000004
1001
REVIT
1002
{
1070
     3
1000
476644
1002
}
  0
LINE
  5
354
  8
0
 10
528.4562006313754
 20
55.63801827524766
 30
0.0
 11
528.4562006313754
 21
17.946533795644541
 31
0.0
1001
REVIT
1002
{
1070
     3
1000
476644
1002
}
  0
ARC
  5
355
  8
0
 10
530.95620063137346
 20
17.94653379564452
 30
0.0
 40
2.4999999999999689
 50
179.9999999999996
 51
226.8047848075791
1001
REVIT
1002
{
1070
     3
1000
476644
1002
}
  0
LINE
  5
356
  8
0
 10
529.24498506412226
 20
16.123969316017831
 30
0.0
 11
530.98292997172416
 21
14.49220351889076
 31
0.0
1001
REVIT
1002
{
1070
     3
1000
476644
1002
}
  0
ARC
  5
357
  8
0
 10
529.95620063137335
 20
13.398664831114541
 30
0.0
 40
1.5000000000002589
 50
0.0000000000004071
 51
46.804784807579431
1001
REVIT
1002
{
1070
     3
1000
476644
1002
}
  0
LINE
  5
358
  8
0
 10
531.45620063137346
 20
13.398664831114541
 30
0.0
 11
531.45620063137346
 21
-16.033554600006919
 31
0.0
1001
REVIT
1002
{
1070
     3
1000
476644
1002
}
  0
ARC
  5
359
  8
0
 10
529.95620063137551
 20
-16.033554600006958
 30
0.0
 40
1.499999999999895
 50
269.99999999999682
 51
0.0000000000012213
1001
REVIT
1002
{
1070
     3
1000
476644
1002
}
  0
LINE
  5
35A
  8
0
 10
529.95620063137528
 20
-17.533554600006848
 30
0.0
 11
503.95620063137551
 21
-17.533554600006848
 31
0.0
1001
REVIT
1002
{
1070
     3
1000
476644
1002
}
  0
ARC
  5
35B
  8
0
 10
503.95620063137562
 20
-16.033554600006649
 30
0.0
 40
1.5000000000002129
 50
180.0000000000008
 51
270.0
1001
REVIT
1002
{
1070
     3
1000
476644
1002
}
  0
LINE
  5
35C
  8
0
 10
502.4562006313754
 20
-16.033554600006688
 30
0.0
 11
502.4562006313754
 21
-9.0485249043656921
 31
0.0
1001
REVIT
1002
{
1070
     3
1000
476644
1002
}
  0
ARC
  5
35D
  8
0
 10
503.95620063137341
 20
-9.0485249043656921
 30
0.0
 40
1.4999999999999001
 50
90.0
 51
180.0
1001
REVIT
1002
{
1070
     3
1000
476644
1002
}
  0
LINE
  5
35E
  8
0
 10
503.95620063137341
 20
-7.5485249043657978
 30
0.0
 11
507.59848798871309
 21
-7.5485249043657978
 31
0.0
1001
REVIT
1002
{
1070
     3
1000
476644
1002
}
  0
ARC
  5
35F
  8
0
 10
507.59848798871309
 20
-4.048524904364732
 30
0.0
 40
3.5000000000001381
 50
270.0
 51
67.975545835069511
1001
REVIT
1002
{
1070
     3
1000
476644
1002
}
  0
LINE
  5
360
  8
0
 10
508.91099599192688
 20
-0.8039413037311078
 30
0.0
 11
501.43154399424151
 21
2.221667469209506
 31
0.0
1001
REVIT
1002
{
1070
     3
1000
476644
1002
}
  0
LINE
  5
361
  8
0
 10
501.43154399424151
 20
2.221667469209506
 30
0.0
 11
501.05654170760897
 21
1.2946435833142469
 31
0.0
1001
REVIT
1002
{
1070
     3
1000
476644
1002
}
  0
LINE
  5
362
  8
0
 10
501.05654170760897
 20
1.2946435833142469
 30
0.0
 11
508.5359937052944
 21
-1.7309651896263669
 31
0.0
1001
REVIT
1002
{
1070
     3
1000
476644
1002
}
  0
ARC
  5
363
  8
0
 10
507.59848798871309
 20
-4.048524904364732
 30
0.0
 40
2.500000000000179
 50
270.0
 51
67.975545835069653
1001
REVIT
1002
{
1070
     3
1000
476644
1002
}
  0
LINE
  5
364
  8
0
 10
507.59848798871309
 20
-6.5485249043657907
 30
0.0
 11
503.95620063137341
 21
-6.5485249043657907
 31
0.0
1001
REVIT
1002
{
1070
     3
1000
476644
1002
}
  0
ARC
  5
365
  8
0
 10
503.95620063137341
 20
-9.0485249043656921
 30
0.0
 40
2.4999999999999041
 50
90.0
 51
180.0
1001
REVIT
1002
{
1070
     3
1000
476644
1002
}
  0
LINE
  5
366
  8
0
 10
501.45620063137528
 20
-9.0485249043656921
 30
0.0
 11
501.45620063137528
 21
-16.033554600006688
 31
0.0
1001
REVIT
1002
{
1070
     3
1000
476644
1002
}
  0
ARC
  5
367
  8
0
 10
503.95620063137551
 20
-16.033554600006688
 30
0.0
 40
2.5000000000002132
 50
180.0
 51
270.0
1001
REVIT
1002
{
1070
     3
1000
476644
1002
}
  0
LINE
  5
368
  8
0
 10
503.95620063137551
 20
-18.533554600006859
 30
0.0
 11
529.95620063137528
 21
-18.533554600006859
 31
0.0
1001
REVIT
1002
{
1070
     3
1000
476644
1002
}
  0
ARC
  5
369
  8
0
 10
529.95620063137528
 20
-16.03355460000688
 30
0.0
 40
2.4999999999999569
 50
270.0
 51
359.99999999999881
1001
REVIT
1002
{
1070
     3
1000
476644
1002
}
  0
LINE
  5
36A
  8
0
 10
532.45620063137346
 20
-16.033554600006919
 30
0.0
 11
532.45620063137346
 21
13.398664831114541
 31
0.0
1001
REVIT
1002
{
1070
     3
1000
476644
1002
}
  0
ARC
  5
36B
  8
0
 10
529.95620063137335
 20
13.39866483111461
 30
0.0
 40
2.500000000000163
 50
359.99999999999801
 51
46.804784807579153
1001
REVIT
1002
{
1070
     3
1000
476644
1002
}
  0
LINE
  5
36C
  8
0
 10
531.66741619862478
 20
15.22122931074143
 30
0.0
 11
529.92947129102265
 21
16.852995107868502
 31
0.0
1001
REVIT
1002
{
1070
     3
1000
476644
1002
}
  0
ARC
  5
36D
  8
0
 10
530.95620063137358
 20
17.946533795644569
 30
0.0
 40
1.5000000000000859
 50
180.0000000000008
 51
226.8047848075783
1001
REVIT
1002
{
1070
     3
1000
476644
1002
}
  0
LINE
  5
36E
  8
0
 10
529.45620063137528
 20
17.946533795644552
 30
0.0
 11
529.45620063137528
 21
55.63801827524766
 31
0.0
1001
REVIT
1002
{
1070
     3
1000
476644
1002
}
  0
ARC
  5
36F
  8
0
 10
530.95620063137585
 20
55.638018275247639
 30
0.0
 40
1.5000000000004829
 50
135.00000000000051
 51
180.0
1001
REVIT
1002
{
1070
     3
1000
476644
1002
}
  0
LINE
  5
370
  8
0
 10
529.89554045959574
 20
56.698678447027831
 30
0.0
 11
531.72396758434013
 21
58.527105571772189
 31
0.0
1001
REVIT
1002
{
1070
     3
1000
476644
1002
}
  0
ARC
  5
371
  8
0
 10
529.95620063137414
 20
60.294872524738203
 30
0.0
 40
2.4999999999994769
 50
315.00000000000028
 51
0.0
1001
REVIT
1002
{
1070
     3
1000
476644
1002
}
  0
LINE
  5
372
  8
0
 10
532.45620063137164
 20
60.294872524738203
 30
0.0
 11
532.45620063137164
 21
88.638018275247617
 31
0.0
1001
REVIT
1002
{
1070
     3
1000
476644
1002
}
  0
ARC
  5
373
  8
0
 10
529.95620063137119
 20
88.638018275247646
 30
0.0
 40
2.5000000000005551
 50
359.9999999999992
 51
44.99999999995768
1001
REVIT
1002
{
1070
     3
1000
476644
1002
}
  0
LINE
  5
374
  8
0
 10
531.72396758433933
 20
90.405785228213077
 30
0.0
 11
529.89554045959312
 21
92.234212352962018
 31
0.0
1001
REVIT
1002
{
1070
     3
1000
476644
1002
}
  0
ARC
  5
375
  8
0
 10
530.95620063137403
 20
93.294872524741294
 30
0.0
 40
1.5000000000003939
 50
180.0000000000008
 51
224.9999999999574
1001
REVIT
1002
{
1070
     3
1000
476644
1002
}
  0
LINE
  5
376
  8
0
 10
529.45620063137358
 20
93.294872524741294
 30
0.0
 11
529.45620063137358
 21
130.98635700434181
 31
0.0
1001
REVIT
1002
{
1070
     3
1000
476644
1002
}
  0
ARC
  5
377
  8
0
 10
530.95620063137358
 20
130.98635700434181
 30
0.0
 40
1.500000000000099
 50
133.19521519227311
 51
180.0
1001
REVIT
1002
{
1070
     3
1000
476644
1002
}
  0
LINE
  5
378
  8
0
 10
529.92947129102572
 20
132.0798956921206
 30
0.0
 11
531.66741619862
 21
133.711661489232
 31
0.0
1001
REVIT
1002
{
1070
     3
1000
476644
1002
}
  0
ARC
  5
379
  8
0
 10
529.95620063137335
 20
135.5342259688633
 30
0.0
 40
2.5000000000002172
 50
313.1952151922726
 51
0.0000000000004071
1001
REVIT
1002
{
1070
     3
1000
476644
1002
}
  0
LINE
  5
37A
  8
0
 10
532.4562006313754
 20
135.5342259688633
 30
0.0
 11
532.4562006313754
 21
180.17832363823439
 31
0.0
1001
REVIT
1002
{
1070
     3
1000
476644
1002
}
  0
ARC
  5
37B
  8
0
 10
529.95620063137528
 20
180.17832363823439
 30
0.0
 40
2.500000000000028
 50
0.0
 51
90.0
1001
REVIT
1002
{
1070
     3
1000
476644
1002
}
  0
LINE
  5
37C
  8
0
 10
529.95620063137528
 20
182.67832363823629
 30
0.0
 11
501.31943839852221
 21
182.67832363823629
 31
0.0
1001
REVIT
1002
{
1070
     3
1000
476644
1002
}
  0
ARC
  5
37D
  8
0
 10
501.31943839852221
 20
180.17832363823609
 30
0.0
 40
2.5000000000002411
 50
90.0
 51
171.42235759493931
1001
REVIT
1002
{
1070
     3
1000
476644
1002
}
  0
LINE
  5
37E
  8
0
 10
498.84740175727308
 20
180.55119740283081
 30
0.0
 11
495.44861051561833
 21
158.01827263549239
 31
0.0
1001
REVIT
1002
{
1070
     3
1000
476644
1002
}
  0
LINE
  5
37F
  8
0
 10
510.59848798871462
 20
82.933549635898999
 30
0.0
 11
510.59848798871462
 21
179.17832363823541
 31
0.0
1001
REVIT
1002
{
1070
     3
1000
211597
1002
}
  0
ARC
  5
380
  8
0
 10
48.000000000000178
 20
73.000000000000455
 30
0.0
 40
1.9999999999999969
 50
0.0
 51
90.000000000000185
1001
REVIT
1002
{
1070
     3
1000
224526
1002
}
  0
ARC
  5
381
  8
0
 10
2.0000000000002478
 20
73.00000000000054
 30
0.0
 40
2.0
 50
89.999999999999801
 51
179.9999999999996
1001
REVIT
1002
{
1070
     3
1000
224526
1002
}
  0
ARC
  5
382
  8
0
 10
2.0000000000002589
 20
2.0000000000004969
 30
0.0
 40
1.999999999999994
 50
180.0
 51
269.99999999999977
1001
REVIT
1002
{
1070
     3
1000
224526
1002
}
  0
ARC
  5
383
  8
0
 10
48.000000000000249
 20
2.0000000000004898
 30
0.0
 40
1.9999999999999949
 50
269.9999999999996
 51
0.0
1001
REVIT
1002
{
1070
     3
1000
224526
1002
}
  0
LINE
  5
384
  8
0
 10
48.000000000000178
 20
75.00000000000054
 30
0.0
 11
2.0000000000002589
 21
75.00000000000054
 31
0.0
1001
REVIT
1002
{
1070
     3
1000
224526
1002
}
  0
LINE
  5
385
  8
0
 10
0.0000000000002487
 20
73.00000000000054
 30
0.0
 11
0.0000000000002487
 21
2.000000000000504
 31
0.0
1001
REVIT
1002
{
1070
     3
1000
224526
1002
}
  0
LINE
  5
386
  8
0
 10
2.0000000000002451
 20
0.0000000000004903
 30
0.0
 11
48.000000000000263
 21
0.0000000000004903
 31
0.0
1001
REVIT
1002
{
1070
     3
1000
224526
1002
}
  0
LINE
  5
387
  8
0
 10
50.000000000000249
 20
2.0000000000004898
 30
0.0
 11
50.000000000000249
 21
73.000000000000455
 31
0.0
1001
REVIT
1002
{
1070
     3
1000
224526
1002
}
  0
LINE
  5
388
  8
0
 10
2.0000000000000879
 20
73.000000000000711
 30
0.0
 11
48.000000000000291
 21
2.0000000000005609
 31
0.0
  0
LINE
  5
389
  8
0
 10
48.000000000000291
 20
73.000000000000711
 30
0.0
 11
2.0000000000002909
 21
2.0000000000004898
 31
0.0
  0
ARC
  5
38A
  8
0
 10
-2.0000000000000071
 20
-3.0000000000000488
 30
0.0
 40
1.9999999999999969
 50
0.0000000000002036
 51
90.0
1001
REVIT
1002
{
1070
     3
1000
224526
1002
}
  0
ARC
  5
38B
  8
0
 10
-97.999999999999943
 20
-2.9999999999999818
 30
0.0
 40
1.999999999999996
 50
90.0
 51
179.9999999999998
1001
REVIT
1002
{
1070
     3
1000
224526
1002
}
  0
ARC
  5
38C
  8
0
 10
-97.999999999999943
 20
-49.0
 30
0.0
 40
1.999999999999992
 50
179.9999999999998
 51
269.9999999999996
1001
REVIT
1002
{
1070
     3
1000
224526
1002
}
  0
ARC
  5
38D
  8
0
 10
-1.9999999999999429
 20
-49.000000000000021
 30
0.0
 40
2.0000000000000071
 50
269.9999999999996
 51
0.0
1001
REVIT
1002
{
1070
     3
1000
224526
1002
}
  0
LINE
  5
38E
  8
0
 10
-2.0000000000000071
 20
-0.9999999999999786
 30
0.0
 11
-97.999999999999943
 21
-0.9999999999999786
 31
0.0
1001
REVIT
1002
{
1070
     3
1000
224526
1002
}
  0
LINE
  5
38F
  8
0
 10
-99.999999999999943
 20
-2.9999999999999711
 30
0.0
 11
-99.999999999999943
 21
-49.0
 31
0.0
1001
REVIT
1002
{
1070
     3
1000
224526
1002
}
  0
LINE
  5
390
  8
0
 10
-97.999999999999943
 20
-51.000000000000007
 30
0.0
 11
-1.9999999999999429
 21
-51.000000000000007
 31
0.0
1001
REVIT
1002
{
1070
     3
1000
224526
1002
}
  0
LINE
  5
391
  8
0
 10
0.0000000000000639
 20
-49.000000000000021
 30
0.0
 11
0.0000000000000639
 21
-3.0000000000000488
 31
0.0
1001
REVIT
1002
{
1070
     3
1000
224526
1002
}
  0
LINE
  5
392
  8
0
 10
-98.000000000000114
 20
-2.9999999999998042
 30
0.0
 11
-1.9999999999999141
 21
-48.999999999999943
 31
0.0
  0
LINE
  5
393
  8
0
 10
-1.9999999999999141
 20
-2.9999999999998042
 30
0.0
 11
-97.999999999999901
 21
-49.000000000000007
 31
0.0
  0
LINE
  5
394
  8
0
  6
DASH
 10
505.39544986029779
 20
77.451475095635004
 30
0.0
 11
-160.0196641445898
 21
77.451475095635075
 31
0.0
1001
REVIT
1002
{
1070
     3
1000
217411
1002
}
  0
LINE
  5
395
  8
0
  6
DASH
 10
505.39544986029802
 20
129.951475095635
 30
0.0
 11
505.3954498602979
 21
77.451475095635004
 31
0.0
1001
REVIT
1002
{
1070
     3
1000
217411
1002
}
  0
LINE
  5
396
  8
0
  6
DASH
 10
2.5000000000000742
 20
-2.072339171135444
 30
0.0
 11
2.4999999999996501
 21
-218.41902815239609
 31
0.0
1001
REVIT
1002
{
1070
     3
1000
217411
1002
}
  0
INSERT
  5
397
  8
0
  6
CONTINUOUS
  2
*X33
 10
0.0
 20
0.0
 30
0.0
1001
ACAD
1000
HATCH
1002
{
1070
    19
1000
FP_1
1040
1.0
1040
0.0
1000
R14_HATCH_DATA
1000
397
1011
1.0
1021
0.0
1031
0.0
1021
0.0
1031
0.0
1011
0.0
1021
0.0
1031
0.0
1021
1.0
1031
0.0
1011
0.0
1021
0.0
1031
0.0
1021
0.0
1031
1.0
1040
0.0
1010
0.0
1020
0.0
1030
1.0
1000
FP_1
1070
     0
1070
     0
1071
        1
1071
        0
1071
        4
1070
     1
1040
50.308241135171322
1040
-218.41902815239621
1040
50.308241135170569
1040
-8.9999999999999147
1070
     1
1040
50.308241135170569
1040
-8.9999999999999147
1040
30.30824113517059
1040
-8.9999999999999147
1070
     1
1040
30.30824113517059
1040
-8.9999999999999147
1040
30.308241135171471
1040
-218.41902815239621
1070
     1
1040
30.308241135171471
1040
-218.41902815239621
1040
50.308241135171308
1040
-218.41902815239621
1071
        0
1070
     0
1070
     2
1040
0.0
1040
1.0
1070
     0
1070
     1
1040
0.0
1040
0.0002411351715637
1040
-0.0000281523960837
1040
0.0
1040
15.0
1070
     0
1071
        1
1040
40.308241135171563
1040
-218.41902815239609
1040
0.0
1002
}
  0
LINE
  5
398
  8
0
 10
50.30824113517059
 20
-9.0
 30
0.0
 11
30.30824113517059
 21
-9.0000000000000568
 31
0.0
1001
REVIT
1002
{
1070
     3
1000
224526
1002
}
  0
LINE
  5
399
  8
0
 10
30.30824113517059
 20
-9.0000000000000568
 30
0.0
 11
30.308241135171279
 21
-218.41902815239609
 31
0.0
1001
REVIT
1002
{
1070
     3
1000
224526
1002
}
  0
LINE
  5
39A
  8
0
 10
50.308241135171279
 20
-218.41902815239609
 30
0.0
 11
50.30824113517059
 21
-9.0
 31
0.0
1001
REVIT
1002
{
1070
     3
1000
224526
1002
}
  0
LINE
  5
39B
  8
0
 10
0.0000000000000924
 20
-218.41902815239661
 30
0.0
 11
0.0000000000004192
 21
-51.000000000000057
 31
0.0
1001
REVIT
1002
{
1070
     3
1000
206265
1002
}
  0
LINE
  5
39C
  8
0
 10
-99.999999999999744
 20
-50.999999999999872
 30
0.0
 11
-100.0
 21
-218.41902815239641
 31
0.0
1001
REVIT
1002
{
1070
     3
1000
206265
1002
}
  0
LINE
  5
39D
  8
0
 10
500.46812570805872
 20
-0.9999999999996732
 30
0.0
 11
5.3082411351715564
 21
-0.9999999999996732
 31
0.0
1001
REVIT
1002
{
1070
     3
1000
211597
1002
}
  0
LINE
  5
39E
  8
0
 10
5.3082411351715564
 20
-6.9999999999998357
 30
0.0
 11
500.46812570805872
 21
-6.9999999999998357
 31
0.0
1001
REVIT
1002
{
1070
     3
1000
211597
1002
}
  0
LINE
  5
39F
  8
0
 10
500.46812570805872
 20
-1.000000000000131
 30
0.0
 11
500.46812570805872
 21
-7.0000000000001288
 31
0.0
1001
REVIT
1002
{
1070
     3
1000
211597
1002
}
  0
LINE
  5
3A0
  8
0
 10
5.3082411351715564
 20
-0.9999999999997321
 30
0.0
 11
5.3082411351715564
 21
-6.9999999999998987
 31
0.0
1001
REVIT
1002
{
1070
     3
1000
211597
1002
}
  0
LINE
  5
3A1
  8
0
 10
502.39544986029642
 20
80.966445399996445
 30
0.0
 11
502.39544986029642
 21
120.9664453999966
 31
0.0
1001
REVIT
1002
{
1070
     3
1000
211597
1002
}
  0
LINE
  5
3A2
  8
0
 10
502.39544986029642
 20
120.9664453999966
 30
0.0
 11
-160.01966414458971
 21
120.9664453999966
 31
0.0
1001
REVIT
1002
{
1070
     3
1000
211597
1002
}
  0
LINE
  5
3A3
  8
0
 10
-160.01966414458971
 20
80.966445399996445
 30
0.0
 11
502.39544986029642
 21
80.966445399996445
 31
0.0
1001
REVIT
1002
{
1070
     3
1000
211597
1002
}
  0
ARC
  5
3A4
  8
0
 10
447.99999999999977
 20
72.951475095634933
 30
0.0
 40
1.9999999999999969
 50
0.0
 51
90.0
1001
REVIT
1002
{
1070
     3
1000
224526
1002
}
  0
ARC
  5
3A5
  8
0
 10
401.99999999999989
 20
72.951475095635004
 30
0.0
 40
2.0
 50
90.0
 51
179.9999999999996
1001
REVIT
1002
{
1070
     3
1000
224526
1002
}
  0
ARC
  5
3A6
  8
0
 10
402.0
 20
1.951475095634968
 30
0.0
 40
1.999999999999994
 50
180.0
 51
270.0
1001
REVIT
1002
{
1070
     3
1000
224526
1002
}
  0
ARC
  5
3A7
  8
0
 10
448.0
 20
1.9514750956349609
 30
0.0
 40
1.9999999999999949
 50
270.0
 51
0.0
1001
REVIT
1002
{
1070
     3
1000
224526
1002
}
  0
LINE
  5
3A8
  8
0
 10
447.99999999999977
 20
74.951475095635004
 30
0.0
 11
402.0
 21
74.951475095635004
 31
0.0
1001
REVIT
1002
{
1070
     3
1000
224526
1002
}
  0
LINE
  5
3A9
  8
0
 10
400.0
 20
72.951475095635004
 30
0.0
 11
400.0
 21
1.9514750956349749
 31
0.0
1001
REVIT
1002
{
1070
     3
1000
224526
1002
}
  0
LINE
  5
3AA
  8
0
 10
401.99999999999989
 20
-0.0485249043650384
 30
0.0
 11
448.0
 21
-0.0485249043650384
 31
0.0
1001
REVIT
1002
{
1070
     3
1000
224526
1002
}
  0
LINE
  5
3AB
  8
0
 10
450.0
 20
1.9514750956349609
 30
0.0
 11
450.0
 21
72.951475095634905
 31
0.0
1001
REVIT
1002
{
1070
     3
1000
224526
1002
}
  0
LINE
  5
3AC
  8
0
 10
401.99999999999972
 20
72.951475095635175
 30
0.0
 11
448.0
 21
1.951475095635032
 31
0.0
  0
LINE
  5
3AD
  8
0
 10
448.0
 20
72.951475095635175
 30
0.0
 11
402.0
 21
1.9514750956349609
 31
0.0
  0
LINE
  5
3AE
  8
0
 10
502.39544986029648
 20
-0.0485249043646547
 30
0.0
 11
502.39544986029648
 21
0.7530247248490128
 31
0.0
1001
REVIT
1002
{
1070
     3
1000
211597
1002
}
  0
LINE
  5
3AF
  8
0
 10
502.39544986029648
 20
1.8317455811452481
 30
0.0
 11
502.39544986029648
 21
10.940456376696851
 31
0.0
1001
REVIT
1002
{
1070
     3
1000
211597
1002
}
  0
LINE
  5
3B0
  8
0
 10
502.39544986029648
 20
73.105253389329434
 30
0.0
 11
502.39544986029648
 21
74.951475095635516
 31
0.0
1001
REVIT
1002
{
1070
     3
1000
211597
1002
}
  0
LINE
  5
3B1
  8
0
 10
502.39544986029648
 20
74.951475095635516
 30
0.0
 11
450.00000000000023
 21
74.951475095635516
 31
0.0
1001
REVIT
1002
{
1070
     3
1000
211597
1002
}
  0
LINE
  5
3B2
  8
0
 10
400.00000000000023
 20
74.951475095635516
 30
0.0
 11
50.000000000000341
 21
74.951475095635516
 31
0.0
1001
REVIT
1002
{
1070
     3
1000
211597
1002
}
  0
LINE
  5
3B3
  8
0
 10
0.0000000000003979
 20
74.951475095635516
 30
0.0
 11
-160.01966414458971
 21
74.951475095635516
 31
0.0
1001
REVIT
1002
{
1070
     3
1000
211597
1002
}
  0
LINE
  5
3B4
  8
0
 10
-160.01966414458971
 20
-0.0485249043646547
 30
0.0
 11
0.0000000000003411
 21
-0.0485249043646547
 31
0.0
1001
REVIT
1002
{
1070
     3
1000
211597
1002
}
  0
LINE
  5
3B5
  8
0
 10
50.000000000000341
 20
-0.0485249043646547
 30
0.0
 11
400.00000000000023
 21
-0.0485249043646547
 31
0.0
1001
REVIT
1002
{
1070
     3
1000
211597
1002
}
  0
LINE
  5
3B6
  8
0
 10
450.00000000000023
 20
-0.0485249043646547
 30
0.0
 11
502.39544986029648
 21
-0.0485249043646547
 31
0.0
1001
REVIT
1002
{
1070
     3
1000
211597
1002
}
  0
VIEWPORT
  5
2ED
 67
     1
  8
0
 10
145.32501220703119
 20
101.8250000476837
 30
0.0
 40
329.64468531468532
 41
222.18000000000001
 68
     1
 69
     1
1001
ACAD
1000
MVIEW
1002
{
1070
    16
1010
0.0
1020
0.0
1030
0.0
1010
0.0
1020
0.0
1030
1.0
1040
0.0
1040
222.18000000000001
1040
145.32501220703119
1040
101.8250000476837
1040
50.0
1040
0.0
1040
0.0
1070
     0
1070
   100
1070
     1
1070
     1
1070
     0
1070
     0
1070
     0
1070
     0
1040
0.0
1040
0.0
1040
0.0
1040
10.0
1040
10.0
1040
10.0
1040
10.0
1070
     0
1002
{
1002
}
1002
}
  0
VIEWPORT
  5
2F1
 67
     1
  8
0
 10
145.32500612735751
 20
101.82499849796289
 30
0.0
 40
232.5200098037719
 41
162.9199975967407
 68
     2
 69
     2
1001
ACAD
1000
MVIEW
1002
{
1070
    16
1010
0.0
1020
0.0
1030
0.0
1010
0.0
1020
0.0
1030
1.0
1040
0.0
1040
858.2918618621494
1040
271.85725197165021
1040
50.095039892397722
1040
50.0
1040
0.0
1040
0.0
1070
     0
1070
  1000
1070
     1
1070
     1
1070
     0
1070
     0
1070
     0
1070
     0
1040
0.0
1040
0.0
1040
0.0
1040
1.0
1040
1.0
1040
0.0
1040
0.0
1070
     0
1002
{
1002
}
1002
}
  0
ENDSEC
  0
EOF
